Transplants - Diamonds And Guns Chords & Tabs

 

Diamonds And Guns Chords & Tabs

Transplants Chords & Tabs

Version: 3 Type: Bass Tab 0 ratings
1 star 2 stars 3 stars 4 stars 5 stars
comments

Diamonds And Guns Bass Tab

   
-------------------------------------------------------------------------------
			     Diamonds and Guns - Transplants
-------------------------------------------------------------------------------

Tabbed By : Jacob Bartlett
e-mail: acobjoe@subpatch.com

Tuning:EADG

REALLY easy song, and very repetative. But some songs just sound awesome like that.

Scroll down to see the order you play it in.

Main Riff
G|---------|
D|---------|
A|-3-3---1-|
E|-----3---|x4

No bass during first part of the verse.

Verse (halfway through)
G|---------|
D|---------|
A|-3-3-----|
E|---------|x4
[ Tab from: http://www.guitartabs.cc/tabs/t/transplants/diamonds_and_guns_btab_ver_3.html ]
Chorus (it's a wicked world that we live in...)
G|--------------------------------------|
D|--------------------------------------|
A|-5----0----5----0----5----0----5----0-|
E|--------------------------------------|

3rd Verse (halfway through)
G|---------|
D|---------|
A|-3-3---1-|
E|-----3---|x4

Order

Main Riff
Verse
Chorus
Main Riff
Verse x2
Chorus
Main Riff
3rd Verse
Chorus
Main Riff x3
Chorus
Main Riff

And That's It! Listen to the song to know when you're spossed to play. 
Any questions or comments feel free to email me.

| /  slide up
| \  slide down
| h  hammer-on
| p  pull-off
| ~  vibrato
| +  harmonic
| x  Mute note
===============================================================================
Comments