Transplants - Apocalypse Now Chords & Tabs

 

Apocalypse Now Chords & Tabs

Transplants Chords & Tabs

Version: 1 Type: Bass Tab 0 ratings
1 star 2 stars 3 stars 4 stars 5 stars
comments

Apocalypse Now Bass Tab

-----------------------------------------------------------------
APOCALYPSE NOW - transplants
-----------------------------------------------------------------

Tabbed By: akbal260
e-mail: akbal0594@hotmail.com

great song from the new transplants cd ... hope you like it


Tuning: standard

intro:
G|---------------------------------------------------------------|
D|---------------------------------------------------------------|
A|-0-0-0--1-1-1--------------------------------------------------|
E|---------------------------------------------------------------|
[ Tab from: http://www.guitartabs.cc/tabs/t/transplants/apocalypse_now_btab.html ]
chorus:
G|---------------------------------------------------------------|
D|---------------------------------------------------------------|
A|---------------0-0-0--1-1-1------------------------------------|
E|-0-0-0--0-0-0--------------------------------------------------|

bridge:
G|---------------------------------------------------------------|
D|---------------------------------------------------------------|
A|--------------2-2----------------------------------------------|
E|-0-0-0-0-0-0---------------------------------------------------|

outro
G|---------------------------------------------------------------|
D|---------------------------------------------------------------|
A|-0-0-0--1-1-1--------------------------------------------------|
E|---------------------------------------------------------------|
Comments