Transmetal - Tristesa De Lucifer Chords & Tabs

 

Tristesa De Lucifer Chords & Tabs

Transmetal Chords & Tabs

Version: 1 Type: Tab 0 ratings
1 star 2 stars 3 stars 4 stars 5 stars
comments

Tristesa De Lucifer Tab

Intro
D--------------------------------------------------------------------------
A-------------------------------------------------------------------------
F--------------------------------------------------------------------------
C-------------------------------------------------------------------------
G---7-7-7-7-7-7-10-10-9-9-9-9-9-9 12-12 10-10-10-10-10-10
D-----------------------------------------------------------------------


D--------------------------------------------------------------------------
A-------------------------------------------------------------------------
F--------------------------------------------------------------------------
C-------------------------------------------------------------------------
G14-14-12-12-12-12-10-10-10-10-9-9-9-9-7-7-7-7-----------
D-----------------------------------------------------------------------

Harmony Riff  (2nd gtr)
D-----------------------------------------------------------------
A---------------------------------------------------------------
F----------------------------------------------------------------
C---5-5-5-5-5-5-9-9-7-7-7-7-7-7-10-10-9-9-9-9-9-9-
G---------------------------------------------------------------
D---------------------------------------------------------------

D--------------------------------------------------------------------------
A-------------------------------------------------------------------------
F--------------------------------------------------------------------------
C--12-12-10-10-10-10-9-9-9-9-7-7-7-7-5-5-5-5---------------
G-----------------------------------------------------------------------
D-----------------------------------------------------------------------
[ Tab from: http://www.guitartabs.cc/tabs/t/transmetal/tristesa_de_lucifer_tab.html ]
Verse
P.M.on ( 0 )
D----------------------------------------------------------------------------------
A----------------------------------------------------------------------------------
F-----------------------------------------------------------------------------------
C---9----------9---------11---------11---------9-------9------------------------
G---7----------7----------9----------9----------7-------7---------101010-999
D------0--0-----0--0-------0--0--------0--0 ----0--0-----0--0---8-8-8--777

Bridge (use alternate picking (up down))
D----------------------------------------------------------------------------
A---------------------------------------------------------------------------
F---------------------------------------------------------------------------
C---------------------------------------------------------------------------
G----------------------------------------------3-3-3-3-3-3-2-2-2-2-2-2-
D-0-0-0-0-0-0-3-3-3-3-3-3-2-2-2-2-2-2------------------------------

P.M.-----------------------------------------------------------------------

no P.M. here
D-----------------------------------------------
A------------------------------------------------
F-------------------------7-7-7---------9-9-9-
C-4-4-4-2-2-2-2--/-5---------5--/-7---------
G-----------------------------------------------
D-----------------------------------------------

D----------------------------------------------------------------------------------------------------------------------------
A----------------------------------------------------------------------------------------------------------------------------
F-----------------------------------------------------------------------------------------------------------------------------
C--------------------------------------------------------------------------------------------------------------5-5-5-7-7-7-
G-7----7--10-9-10-7----7---7--10-9-10-5---5-9-7-9---5----5-9-7-9-- 0----0-3-2-3-0---0-3-2-3---3-3-3-5-5-5-
D-----------------------------------------------------------------------------------------------------------------------------
Comments