Transiberian Orchestra - Carol Of The Bells Chords & Tabs

 

Carol Of The Bells Chords & Tabs

Transiberian Orchestra Chords & Tabs

Version: 1 Type: Tab 1 rating
1 star 2 stars 3 stars 4 stars 5 stars
comments

Carol Of The Bells Tab

   
Artist : Trans-Iberian Orchestra
Song : Carol Of The Bells

(Intro)

E|---0-3-2----------------------------
B|--0---------------------------------
G|------------------------------------
D|------------------------------------
A|------------------------------------
E|------------------------------------

Then you hear the electric come in.
(Tune down to D)(Muted)
[ Tab from: http://www.guitartabs.cc/tabs/t/transiberian_orchestra/carol_of_the_bells_tab.html ]
E|------------------------------------
B|------------------------------------
G|------------------------------------
D|--2--2--2--2--2--2--2--2--2--2--2---
A|--2--2--2--2--2--2--2--2--2--2--2---
E|--0--0--0--0--0--0--0--0--0--0--0---

E|--3-2-0--3-2-0--3-2-0--3-2-0--3-2-0-
B|------------------------------------
G|------------------------------------
D|------------------------------------
A|------------------------------------
E|------------------------------------

Thats all I know so far but I will keep working on it.



Comments