Transatlantic - All Of The Above Chords & Tabs

 

All Of The Above Chords & Tabs

Transatlantic Chords & Tabs

Version: 1 Type: Tab 0 ratings
1 star 2 stars 3 stars 4 stars 5 stars
comments

All Of The Above Tab

Author/Artist: Transatlantic
Title: All Of The Above
Album: Transatlantic
Transcribed by: Arthur Cisneros
Email: analog_kid84@yahoo.com

its a challenging song, trying to hear the guitar parts. its a fun song.

---------------------------------|-|------------------------------|-----------
---------------------------------|-|---8-8-8-8--x-9--8-8-8-8--x-9-|-2x--------
---------------------------------|6|---x-x-x-x--x-x--x-x-x-x--x-x-|-----------
---6-5-----4-3-----2-1-----------|4|---5-5-5-5--x-6--5-5-5-5--x-6-|-----------
-6-----6-5-----4-3-----2-1-4-3---|-|------------------------------|-----------
-------------------------------4-|-|-3----------------------------|-----------
 w/distortion                          clean tone

---------------------------|-|------------------------------|-----------------
---------------------------|-|---8-8-8-8--x-9--8-8-8-8--x-9-|-2x--------------
---------------------------|6|---x-x-x-x--x-x--x-x-x-x--x-x-|-----------------
---6-5-----4-3-----2-1-----|4|---5-5-5-5--x-6--5-5-5-5--x-6-|-----------------
-6-----6-5-----4-3-----2---|-|------------------------------|-----------------
---------------------------|-|-3----------------------------|-----------------
 distortion               drop   clean tone throughout

-|-|------------------------------|---|---------------------------------------
-|-|------------------------------|---|-9-9-9-9--x-10--9-9-9-9--x-10----------
-|6|-9-9-9-9--x-10--9-9-9-9--x-10-|-2x|-x-x-x-x--x-x---x-x-x-x--x-x-----------
-|4|-x-x-x-x--x-x---x-x-x-x--x-x--|---|-6-6-6-6--x-7---6-6-6-6--x-7-----------
-|-|-7-7-7-7--x-8---7-7-7-7--x-8--|---|---------------------------------------
-|-|------------------------------|---|---------------------------------------


--------------------------------------|---------------------------------------
-12-12-12-12--x-14--12-12-12-12--x-14-|-14-14-14-14--x-15--14-14-14-14--x-15--
-x--x--x--x---x-x---x--x--x--x---x-x--|-x--x--x--x---x-x---x--x--x--x---x-x---
-9--9--9--9---x-11--9--9--9--9---x-11-|-11-11-11-11--x-12--11-11-11-11--x-12--
--------------------------------------|---------------------------------------
--------------------------------------|---------------------------------------


-12-12-12-12--x-13--12-12-12-12--x-13-|-15-15-15--14--15-14-14-14-14--15------
-x--x--x--x---x-x---x--x--x--x---x-x--|-x--x--x---x---x--x--x--x--x---x-------
-9--9--9--9---x-10--9--9--9--9---x-10-|-12-12-12--11--12-11-11-11-11--12------
--------------------------------------|---------------------------------------
--------------------------------------|---------------------------------------
--------------------------------------|---------------------------------------


-17-17-17--18---17----17-17-17--18-|-14-14-14--14-14-14--15--17-17-17---------
-x--x--x---x----x-----x--x--x---x--|-x--x--x---x--x--x---x---x--x--x----------
-14-14-14--15---14----14-14-14--15-|-11-11-11--11-11-11--12--14-14-14---------
-----------------------------------|------------------------------------------
-----------------------------------|------------------------------------------
-----------------------------------|------------------------------------------


-17-17--18\-|------------|--------------------------------------|--------|-|--
-x--x---x-\-|------------|--------------------------------------|--------|-|--
-14-14--15\-|------------|--------------------------------------|--------|7|--
------------|------------|---6-5-----4-3-----2-1----------------|--------|4|--
------------|------------|-6-----6-5-----4-3-----2-1-4-3--------|--------|-|--
------------|------------|-------------------------------4--3---|--------|-|--
               organ solo  distorted\start slowing down

----------------------|---------------------|----------------------|----------
-------------8-6------|------------8-6\5----|------------8-6-------|----------
-7--4-5-6-7------8-7-5|7--4-5-6-7--------7-5|7--4-5-6-7------8-7-5-|----------
----------------------|---------------------|----------------------|----------
----------------------|---------------------|----------------------|----------
----------------------|---------------------|----------------------|----------


---------------------------|--|-----------------------------------------------
-------------8-6h8p6\5-----|2x|-----------------------------------------------
-7--4-5-6-7------------7-5-|-*|-7vvvvvvvv-------------------------------------
---------------------------|-*|-----------------------------------------------
---------------------------|--|-----------------------------------------------
---------------------------|--|-----------------------------------------------
                             fade out   while drums and bass continue

---------------------------------------------|----|---------------------------
-12--12-12-12--8--8-8/----6--6---------8--8--|-4x-|-------------8/11----------
-12--12-12-12--8--8-8/10--7--7-7-7--9--9--9--|----|-----------7------7b1vvv---
-12--12-12-12--8--8-8/10--8--8-8-8--10-10-10-|----|-7/9-7-5-9-----------------
-10--10-10-10--6--6-6/8------8-8-8--10-10-10-|----|---------------------------
-------------------------------6-6--8--8--8--|----|---------------------------
 clean tone                                   organ

--------------------------------------------|-------|-------------------------
-------------8/11------8----8----8----8-----|-------|----13b1-13-11-13-11-----
-----------7------7b9vv--9vv--9vv--9vv--9vv-|-------|-12------------------12--
-7/9-7-5-9----------------------------------|-------|-------------------------
--------------------------------------------|-------|-------------------------
--------------------------------------------|-------|-------------------------
                                                      romantic part

--------------|--|------------9-12------------------|------------9-12-14------
-------11-----|--|---------10------10v-12b1/2--12vv-|---------10---------14v--
-10-12----12vv|--|-9-7-6-9--------------------------|-9-7-6-9-----------------
--------------|--|----------------------------------|-------------------------
--------------|--|----------------------------------|-------------------------
--------------|--|----------------------------------|-------------------------


-17v-----19b1/2---19b1/2r-19-17-19vv-|----------------------------------------
-----15v-----------------------------|----------------------------------------
-------------------------------------|----------------------------------------
-------------------------------------|----------------------------------------
-------------------------------------|----------------------------------------
-------------------------------------|----------------------------------------


------------9-12--------------------------------------------------------------
---------10------10-12-13-15b1--13-15-13-12-------12--------------------------
-9-7-6-9------------------------------------12-14----14-12--------------------
-----------------------------------------------------------14-12--------------
------------------------------------------------------------------------------
------------------------------------------------------------------------------
 slightly distorted

------------9-12/14----12-14-15----14----12----10-----|---------------------|-
---------10---------14----------15----12----10----8vv-|---------------------|-
-9-7-6-9----------------------------------------------|---------------------|-
------------------------------------------------------|---------------------|-
------------------------------------------------------|---------------------|-
------------------------------------------------------|---------------------|-
                                                        organ fill

---------------------------------------------------16vv-------18vv------------
-------------------10-12vv-----------------14vv-15----------------------------
--------------10vv-----------------12vv-13--------------------15vv------------
-------9vv-10--------------11vv-12--------------------------------------------
-7vv-8------------------------------------------------------------------------
------------------------------------------------------------------------------


-|-------------------------|---|---16vv-15v-----13vv--------------------------
-|-8--8-8-x-x-8--x-8--x-9--|-8x|----------------------------------------------
-|-8--8-8-x-x-8--x-8--x-8--|---|------------15v------12b1/2-12-12b1/2-12vv----
-|-8--8-8-x-x-8--x-8--x-8--|---|----------------------------------------------
-|-6--6-6-x-x-6--x-6--x-6--|---|----------------------------------------------
-|-------------------------|---|----------------------------------------------
   this is the acoustic guitar      this is the swelled guitar fill

-13p11---------|-----------------------------------------------|--------------
-------13p11vv-|---------9p8-----------------------------------|--------------
---------------|-10p8h10-----8-10vv------8--------8--------8---|--------------
---------------|-------------------------8--------8--------8---|--------------
---------------|-----------------------6---6-8/10-----8h10-10--|--------------
---------------|-----------------------------------------------|--------------


------------------------------------------------------------------------------
----------------------5-----------------9-8-----------------------------------
------------5---5-6-5---6-8-6v--10-8-10-----8-10------------------------------
--8-6-5-6-8---8---------------------------------------------------------------
------------------------------------------------------------------------------
------------------------------------------------------------------------------
  giutar/keyboard unison

------------------------------------------------------------------------------
----------------------5-----------------9-8---------------------9-------------
------------5---5-6-5---6-8-6v--10-8-10-----8-10vv---10-10-8h10-10------------
--8-6-5-6-8---8---------------------------------------------------------------
------------------------------------------------------------------------------
------------------------------------------------------------------------------


----------16-15--------------------------------19b1/2-19p17h19----------------
-18-16-18-------16-18vv--------20b1/2-20p18h20-------------------------------
------------------------------------------------------------------------------
------------------------------------------------------------------------------
------------------------------------------------------------------------------
------------------------------------------------------------------------------


-22b1/2-22p20h22\-|-----------------------------------------------------------
------------------|-----------------------------------------------------------
------------------|-----13-12------------12-10------------13-12-------12-10---
------------------|--13-------13-12v--12-------12-10v--13-------13-12---------
------------------|-----------------------------------------------------------
------------------|-----------------------------------------------------------
                    light distortion

---------|------|-|----------------------------------------0-0-0-0------------
---------|------|-|----------------------------------5h6-6-6-6-6-6-6----------
---------|------|-|----------------------------------5-5-5-5-5-5-5-5----------
-12-10vv-|-14vv-|-|-----------------------------------------------------------
---------|------|-|-----------------------------------------------------------
---------|------|-|-----------------------------------------------------------
     1st    2nd      In a state of falling grace.....

--------------------------------------------|-----------------------0-0-0-0---
---------------------------------10-11-13\--|-----------------5h6-6-6-6-6-6-6-
------------------8/10-10--10-12------------|-----------------5-5-5-5-5-5-5-5-
--------------------------------------------|---------------------------------
--------------------------------------------|---------------------------------
--------------------------------------------|---------------------------------
  full moon...today.                          Like a child...
[ Tab from: http://www.guitartabs.cc/tabs/t/transatlantic/all_of_the_above_tab.html ]
----------------|-------------------------------------------------------------
----------------|-------------------------13/15-15-15-15/17-17-17-17/18-------
----------------|-------------------------x-/x--x--x--x-/x--x--x--x-/x--------
----------------|-------------------------10/12-12-12-12/14-14-14-14/15-------
----------------|-------------------------------------------------------------
----------------|-------------------------------------------------------------
                 came here to take me away

------------------|-----------------------------------------------------------
-17-18-20-17------|-3----------------3----------------------------------------
-x--x--x--x--17\--|-2----------------3------------------2------------------0--
-14-15-17-14-x-\--|-0----------------0------------------2------------------0--
-------------15\--|-------------------------------------0---------------------
------------------|-----------------------------------------------------------
                    This has never been before  when thesun

--------------------------------------------------------0-----0---------------
-3------------------------------------------------------8-----8---------------
-2-----------------3-----------------2------------------10----9---------------
-0-----------------3-----------------3----------------------------------------
-------------------1-----------------3----------------------------------------
------------------------------------------------------------------------------
  like the sky hold back.        the full moon rise todayyyyyyy...

------------------------------------------------------------------------------
------------------------------------------------------------------------------
-8-------------------------------------------7---------------------10-9-------
-8--------------------------7----7-8-10-8-10---8-10v-8v---12-10-12------10-12-
-6-----------------8-7-8-10---10----------------------------------------------
------------------------------------------------------------------------------
 full moon..today {------MAIN-RIFF--- repeat all this 2x-------------------}

-|------------------------5v/6v-----------------------------------------------
-|------------------------6v/8v-----------------------------------------------
-|----------------------------------------------------------------------------
-|----------------------------------------------------------------------------
-|----------------------------------------------------------------------------
-|----------------------------------------------------------------------------
   there i was w/complaints          in the comfort of my..

------------------6-------------6-----------------------------------------12--
--------------------6-------------6-------------------------------------------
----------------------8-------------7------10-----------------------14h15-----
----------------8--------------------------10---------------------------------
--------------6---------------8------------8----------------------------------
----------------------------6-------------------------------------------------
 i STAYEDddd (clean dist.)  FULL MOOn      today

-----------------------------------------5v/6v--------------------------------
-13vv------------------------------------6v/8v------------------------------
--------------------------------------------------------------------------------
------------------------------------------------------------------------------
------------------------------------------------------------------------------
------------------------------------------------------------------------------
 but there it was returning for my eyes    like a fire thats burning up my

-----------6--------------6------------5/6-6-6-6/8--8--8--8-/10-10-10-10/12---
-------------6--------------6----------6/8-8-8-8/10-10-10-10/11-11-11-11/13---
---------------8--------------7---10------------------------------------------
---------8------------------------10------------------------------------------
-------6----------------8---------8-------------------------------------------
----------------------6-------------------------------------------------------
 eyes

-12-12/13-13-13\-----|--------------------------------------------------------
-13-13/15-15-15\---3-|-3--------------3---------------------------------------
-------------------2-|-2--------------3--------------------2------------------
-------------------0-|-0--------------0--------------------2------------------
---------------------|-------------------------------------0------------------
---------------------|--------------------------------------------------------
                       this has never been before  and the sun burns bright

-----------|-------------------------------------------------------0----0-----
-----------|-3-----------------------------------------------------8----8-----
---------0-|-2--------------------3--------------------------------10---9-----
---------0-|-0--------------------3-------------------------------------------
-----------|----------------------1-------------------------------------------
-----------|------------------------------------------------------------------
 the day      like the sky hold back no more    when the ......... todayyyy

-----------------|---------------------------|--------------------------------
-----------------|---------------------------|--------------------------------
-----------------|---------------------------|----------10\9------------------
-----------------|---------------------------|-12-10-12------10/12vv----------
-----------------|---------------------------|--------------------------------
-----------------|---------------------------|--------------------------------
 Full moon..today  MAIN RIFF,red box,Play 2x   2nd time

------------------------------------------------------------------------------
------------------------------------------------------------------------------
----------10\9------------10h12-------------------------10\9------------------
-12-10-12------10/12vv----------10h12-10/12\---12h10p12------10h12vv----------
--------------------------------------8-/10\----------------------------------
------------------------------------------------------------------------------


----------------------------------------|-------------------------------------
---------------------------3/-----------|-12v---------------------------------
---------------------------4/-----------|-12v---------------------------------
----------------------------------------|-------------------------------------
----------------------------------------|-------------------------------------
----------------------------------------|-------------------------------------
 There's a town ... hey hey  (with slide, swell in)Never thought of where id

------------------------------------------------------------------------------
-------------------------------------------12///16vv\15vv---------------------
------------------------------------------------------------------------------
------------------------------------------------------------------------------
------------------------------------------------------------------------------
------------------------------------------------------------------------------
 been,  of the wind ... creeping in one day,  now summers gone away. summers

----------|---------------------|---------------------------------------------
----------|--6v-8v---3---3/6-5v-|------------------3-5-6-5--------------------
----------|------------3--------|-5-----5----5\----3-3-3-3--5\------5---------
----------|---------------------|-5-----5----5\-------------5\---5--5---------
----------|---------------------|-3-----3----3\------------------3------------
----------|---------------------|---------------------------------------------
 gone away   hey  hey            organ,guitar fill

---------|---------------------------------------------|----------------------
-3-5-6-5-|--------------3-5-6-5-------------3-5-6-5----|----------------------
-3-3-3-3-|-5\--3\--5\---3-3-3-3---5\-3\-5\--3-3-3-3----|----------------------
---------|-5\--3\--5\-------------5\-3\-5\-------------|----------------------
---------|---------------------------------------------|----------------------
---------|---------------------------------------------|----------------------
          band comes in

------------------------------------------------------------------------------
-------------3-5-6-5-3------------10-8-6-5-8-6-5-3----------------------------
----5v---3-5-----------3-5h7p5vv----------------------------------------------
------------------------------------------------------------------------------
------------------------------------------------------------------------------
------------------------------------------------------------------------------
 solo

------------------------------------------------------------------------------
------------3-5-6-5-3------------10-8-6-5-8-6-5-3-6v-8v--10-11----------------
---5v---3-5-----------3-5h7p5vv-----------------------------------------------
------------------------------------------------------------------------------
------------------------------------------------------------------------------
------------------------------------------------------------------------------


-12v----12-13-15-17-15-13--------------17-15-------15-------------------------
-13v-15----15-17-18-17-15-15-17-18-17v-------18-17----18-17-15-17vv-----------
-----15-17----------------15-17-19-17v-17-15-14-12-15-14-12-15-17vv-----------
------------------------------------------------------------------------------
------------------------------------------------------------------------------
------------------------------------------------------------------------------
  keyboard harm. on top                on bottom               top

-------13-15-17-15-13--------------17-15-------15-----------17v-15-17-18v-----
-15-17-15-17-18-17-15-15-17-18-17--------18-17----18-17-15--18v-17-18-20v-----
-15-17----------------15-17-19-17v-17-15-14-12-15-14-12-15--------------------
------------------------------------------------------------------------------
------------------------------------------------------------------------------
------------------------------------------------------------------------------
  top                              bottom                   top

-17-18-20/24vvv\----------|---------------------------------------------------
--------------------------|-------------------------------15------------------
-17-19-21vv----------3vv--|-------------14----14-17-14-17----15-17-15vv-------
---------------------3vv--|-15-14-15-17----17---------------------------------
---------------------1vv--|---------------------------------------------------
--------------------------|---------------------------------------------------
 harmony 20/24

----------13\12-------|---|---0-0-0-0-1-----0-0-0-0-1--|----------------------
-15p13h15-------13-15-|-2x|---3-3-3-3-3-----3-3-3-3-3--|----------------------
----------------------|---|---3-3-3-3-3-----3-3-3-3-3--|----------------------
----------------------|---|---3-3-3-3-3-----3-3-3-3-3--|----------------------
----------------------|---|-1---------1---1-1-1-1-1-1--|----------------------
----------------------|---|----------------------------|----------------------
                            piano fill

------------------------------------------------------------------------------
---15b1/2-15vvv--13-15-13b1-13b1-10h13p10vv----------------------------/17vv--
--------------------------------------------10b1-------------14b1/4/17--------
-------------------------------------------------10h12-/14vv------------------
------------------------------------------------------------------------------
------------------------------------------------------------------------------
 small solo

------------------------------------------------------------------------------
------------------------------------------------------------------------------
---------------------10-12-14-10b1vvv-10v-------------------------------------
-12-12-12^vv------12----------------------------------------------------------
------------------------------------------------------------------------------
------------------------------------------------------------------------------
   artificial harm.                       fade out..

------------------------------------------------------------------------------
------------------------------------------------------------------------------
------------------------------------------------------------------------------
------------------------------------------------------------------------------
------------------------------------------------------------------------------
------------------------------------------------------------------------------
 piano  solo.         i haven't really learned the next guitar solo yet,I
                   promise I’ll bring you the rest and maybe also a
piano
                  tab too, a new version.
Comments