Trans-siberian Orchestra - Requiem Chords & Tabs

 

Requiem Chords & Tabs

Trans-siberian Orchestra Chords & Tabs

Version: 2 Type: Tab 0 ratings
1 star 2 stars 3 stars 4 stars 5 stars
comments

Requiem Tab

   
Requiem - The Fifth
Trans Siberian Orchestra
Transcribed by: Tim Gielissen (timgte@hotmail.com)

I know there's another tab for this song, I don't want to say mine
is better, just a bit different. Enjoy!

Intro chords: G5  Eb5 , F5  D5

Riff A
|----------------------------------|
|----------------------------------|
|----------------------------------|
|-----------3-----5-3-------3------|
|-3-5-6-5-6---6-5-----6-5-6---6-5--|
|----------------------------------|

Riff A1 (Sets in later)
|----------------------------------|
|----------------------------------|
|-12-12-128-~---10-10-10--7-~-----|
|----------------------------------|
|----------------------------------|
|----------------------------------|

Riff B
|--------------------------------------------|
|--------------------------------------------|
|--------------------------------------------|
|---------------------------5-6-5-3---3------|
|-3~----5~----6~----8~--------------6---6-5--|
|----3~----3~----3~----3~--------------------|

Riff A
and
Riff A2
|--------------------------------------------|
|--------------------------------------------|
|-12-12-128-~---10-10-10--7-~---3~--7~--5~--|
|--------------------------------------------|
|--------------------------------------------|
|--------------------------------------------|
[ Tab from: http://www.guitartabs.cc/tabs/t/trans_siberian_orchestra/requiem_tab_ver_2.html ]
Riff C1
|----------------------------|--|----------------------------|--|
|----------------------------|--|----------------------------|--|
|----------------------------|--|----------------------------|--|
|----------------------------|2x|----------------------------|2x|
|--3-5-6--6--6--6-5-3--3--3--|--|--5-6-8--8--8--8-6-5--5--5--|--|
|----------------------------|--|----------------------------|--|


|------------------------------|--|--------------------------------|--|
|------------------------------|--|--------------------------------|--|
|------------------------------|--|--------------------------------|--|
|------------------------------|2x|--------------------------------|2x|
|--6-8-10--10-10--10-8-6--6--6-|--|-8-10-11--11-11--11-10-8--8--8--|--|
|------------------------------|--|--------------------------------|--|

|--------------------------------------|--|
|--------------------------------------|--|
|--------12--12--12--12----------------|--|
|--10-14----------------14-10--10--10--|--|
|--------------------------------------|--|
|--------------------------------------|--|

|--------------------------------------|--|
|--------------------------------------|--|
|--------13--13--13--13----------------|--|
|--10-14----------------14-10--10--10--|--|
|--------------------------------------|--|
|--------------------------------------|--|

[short pauze]

Riff C (only first measure)

[short pauze]

Riff C 		(once)

Repeat this one more time after riff C
|--------------------------------------|--|
|--------------------------------------|--|
|--------12--12--12--12----------------|--|
|--10-14----------------14-10--10--10--|--|
|--------------------------------------|--|
|--------------------------------------|--|

Riff A 		(2 times)
Riff A + A2 	(2 times)

Riff B 		(2 times)

Play slower
|-------------------|
|-------------------|
|-------------------|
|--5-6-5-3---3------|
|----------6---6-5--|
|-------------------|

End chords: G5  Eb5 , F5  D5
 
C5 (!!)

Well, hope you liked it. If you have anything to say (good or bad) please mail me at timgte@hotmail.com
Comments