Trans-siberian Orchestra - Requiem Chords & Tabs

 

Requiem Chords & Tabs

Trans-siberian Orchestra Chords & Tabs

Version: 1 Type: Tab 0 ratings
1 star 2 stars 3 stars 4 stars 5 stars
comments

Requiem Tab

   
This is a awesome song found on "Beethoven's last night"
Should be 100% correct
Standard Tuning

E-----------------|
B-----------------|
G---------------2-|
D-5-5-5-1-3-3-3-0-|
A-5-5-5-1-3-3-3---|
E-3-3-3---1-1-1---|
(.10)
E---------------------------------|
B---------------------------------|
G---------------------------------|
D-----------3-----5-3-------3-----|
A-3-5-6-5-6---6-5-----6-5-6---6-5-|
E---------------------------------|
All Palm Muted. Repeats 4x's [RIFF A]
(.22)
E-------------------------|
B-------------------------|
G-12-12-12----10-10-10----|
D----------13----------12-|
A-------------------------|
E-------------------------|

E------------------------------------------|
B------------------------------------------|
G-5-0-7-0-8-0-10-0-12-13-12-10-8-10-8-7(5)-|
D------------------------------------------|
A------------------------------------------|
E------------------------------------------|
Repeated 2x's On Last time, instead of ending
on 7, end on (5)
(.40) Repeat RIFF A 2x's
(.46)
E-------------------------------|
B-------------------------------|
G-12-12-12----10-10-10------7-5-|
D----------13----------12-8-----|
A-------------------------------|
E-------------------------------|
Repeat RIFF A 2x's
(.59)
E-----------------------------------------------------------|
B-----------------------------------------------------------|
G-12-12-12----10-10-10------7-5-7-888-7-5-5-5-7-888-7-5-5-5-|
D----------13----------12-8---------------------------------|
A-----------------------------------------------------------|
E-----------------------------------------------------------|

E-------------------------------------|
B-------------------------------------|
G-7-8-101010-8-7-7-7-8-101010-8-7-7-7-|
D-------------------------------------|
A-------------------------------------|
E-------------------------------------|

E-----------------------------------------|
B-----------------------------------------|
G-8-10-121212-10-8-8-8-10-121212-10-8-8-8-|
D-----------------------------------------|
A-----------------------------------------|
E-----------------------------------------|

E------------------------------------------------|
B------------------------------------------------|
G-10-12-131313-12-10-10-10-12-131313-12-10-10-10-|
D------------------------------------------------|
A------------------------------------------------|
E------------------------------------------------|
[ Tab from: http://www.guitartabs.cc/tabs/t/trans_siberian_orchestra/requiem_tab.html ]
E---------------------------------------------------|
B----12-151515-12----------13-15-161616-15-13-13-13-|
G-12--------------12-12-12--------------------------|
D---------------------------------------------------|
A---------------------------------------------------|
E---------------------------------------------------|
Singing
(1.30)
E-------------------------------|
B-------------------------------|
G-5-7-888-7-5-5-5-7-888-7-5-5-5-|
D-------------------------------|
A-------------------------------|
E-------------------------------|
Singing
(1.41)
E-------------------------------|
B-------------------------------|
G-5-7-888-7-5-5-5-7-888-7-5-5-5-|
D-------------------------------|
A-------------------------------|
E-------------------------------|

E-------------------------------------|
B-------------------------------------|
G-7-8-101010-8-7-7-7-8-101010-8-7-7-7-|
D-------------------------------------|
A-------------------------------------|
E-------------------------------------|

E-----------------------------------------|
B-----------------------------------------|
G-8-10-121212-10-8-8-8-10-121212-10-8-8-8-|
D-----------------------------------------|
A-----------------------------------------|
E-----------------------------------------|

E------------------------------------------------|
B------------------------------------------------|
G-10-12-131313-12-10-10-10-12-131313-12-10-10-10-|
D------------------------------------------------|
A------------------------------------------------|
E------------------------------------------------|

E-------------------------------------------------|
B---12-151515-12---------13-15-161616-15-13-13-13-|
G-12------------12-12-12--------------------------|
D-------------------------------------------------|
A-------------------------------------------------|
E-------------------------------------------------|

E-------------------------|
B----12-151515-12---------|
G-12-------------12-12-12-|
D-------------------------|
A-------------------------|
E-------------------------|
Repeat RIFF A 2x's
E---------------------------|
B---------------------------|
G-12-12-12--10-10-10------7-|
D---------13---------12-8---|
A---------------------------|
E---------------------------|

E---------------------------------------|
B---------------------------------------|
G-5-0-7-0-8-0-10-0-12-13-12-10-8-10-8-7-|
D---------------------------------------|
A---------------------------------------|
E---------------------------------------|
Repeat
E----------------------|
B----------------------|
G-12-13-12-10-8-10-8-7-|
D----------------------|
A----------------------|
E----------------------|
(2.31)                  (2.44)
E---------------------------|
B---------------------------|
G---------------2-----------|
D-5-5-5-1-3-3-3-0---------5-|
A-5-5-5-1-3-3-3-----------3-|
E-3-3-3---1-1-1-------------|

Thats It, Have fun, and Good Luck with it.
Ill have some others off Beethoven's Last Night tabbed soon.
Rock on TSO
Comments