Trans-siberian Orchestra - Overture Chords & Tabs

 

Overture Chords & Tabs

Trans-siberian Orchestra Chords & Tabs

Version: 1 Type: Tab 0 ratings
1 star 2 stars 3 stars 4 stars 5 stars
comments

Overture Tab

   
Overture, #1 on Beethoven CD
Standard Tuning
(.36) Repeat
E--------------------------------------------------|
B--------------------------------------------------|
G-55-------------55-----------5-7-8-10-12-13-10-12-|
D-33-3-3-3-3-3-3-33-3-3-3-3-3-3-5-6-8--10-11-8--10-|
A--------------------------------------------------|
E--------------------------------------------------|
     ***********    *********
(.52)
2 Guitars, Repeat
E-15~-------------|
B-----------------|
G-----------------|
D-----------------|
A-5-5-5-5-5-5-5-5-|
E-3-3-3-3-3-3-3-3-|
(1.00)
E-----------------------------------------------------|
B-----------------------------------------------------|
G-----------------------------------------------------|
D-----------------------------------------------------|
A-------------------------------------------------8-5-|
E-3-3-3-3-3-3-3-3-4-4-4-4-4-4-4-4-6-6-6-6-6-6-6-4-6-3-|
  ***********************************************
Ode to Joy on Piano
(1.39) Repeat
E--------------------------------------------------|
B--------------------------------------------------|
G-55-------------55-----------5-7-8-10-12-13-10-12-|
D-33-3-3-3-3-3-3-33-3-3-3-3-3-3-5-6-8--10-11-8--10-|
A--------------------------------------------------|
E--------------------------------------------------|
     ***********    *********
(1.55) Into Requim..Repeats throughout
E---------------------------------|
B---------------------------------|
G---------------------------------|
D-----------3-----5-3-------3-----|
A-3-5-6-5-6---6-5-----6-5-6---6-5-|
E---------------------------------|
  *******************************
(2.00) Repeats
E--------------------------------------------------------------|
B--------------------------------------------------------------|
G-12-12-12---10-10-10----5-0-7-0-8-0-10-0-12-13-12-10-8-10-8-7-|
D----------13---------12---------------------------------------|
A--------------------------------------------------------------|
E--------------------------------------------------------------|


E-----------------|
B-----------------|
G---------------7-|
D-5-5-5-1-3-3-3-7-|
A-5-5-5-1-3-3-3-5-|
E-3-3-3---1-1-1---|

*=Palm Mute

-End
[ Tab from: http://www.guitartabs.cc/tabs/t/trans_siberian_orchestra/overture_tab.html ]
Comments