Trans Siberian Orchestra - O Come All Ye Faithful Holy Night Chords & Tabs

 

O Come All Ye Faithful Holy Night Chords & Tabs

Trans Siberian Orchestra Chords & Tabs

Version: 1 Type: Tab 0 ratings
1 star 2 stars 3 stars 4 stars 5 stars
comments

O Come All Ye Faithful Holy Night Tab

#----------------------------------PLEASE NOTE---------------------------------#
#This file is the author's own work and represents their interpretation of the #
#song. You may only use this file for private study, scholarship, or research. #
#------------------------------------------------------------------------------##

Title: 		O Come All Ye Faithful/ O Holy Night
Band: 		Trans-Siberian Orchetra
Transcribed By:	Jack
[ Tab from: http://www.guitartabs.cc/tabs/t/trans_siberian_orchestra/o_come_all_ye_faithful_holy_night_tab.html ]
---------|--------|-------|---------------------------------------------------
---------|--------|-------|---------------------------------------------------
---------|--------|-------|----------------12-14------------------------------
---------|-3------|-3--3--|-15-14-12-14-15-------14----12---10-10-------------
---------|-3------|-3--3--|---------------------------------------------------
---------|-1------|-1--1--|---------------------------------------------------
 (intro)                                                                      
-------|-------|-13-12-10-12-13-15-17-----------------15----------------------
-------|-------|----------------------17-17h18p15-15b----15b17r15-13--13------
-------|-------|---------------------------------------------------------12---
-3-----|-3--3--|--------------------------------------------------------------
-3-----|-3--3--|--------------------------------------------------------------
-1-----|-1--1--|--------------------------------------------------------------
                                                                              
-------12----13-15-17-15-18-17-|--/20--18-17-18-20p18p17|-15-17-13-15-12------
-15----------------------------|------------------------|---------------------
----12-------------------------|------------------------|---------------------
-------------------------------|------------------------|---------------------
-------------------------------|------------------------|---------------------
-------------------------------|------------------------|---------------------
                                                                              
-12h13p12----12-13-15-17-15-17-18-20|---------------|-17-18-17h18p17-15-13----
----------15------------------------|---------------|-------------------------
------------------------------------|---------------|-------------------------
------------------------------------|---------------|-------------------------
------------------------------------|---------------|-------------------------
------------------------------------|---------------|-------------------------
                                      (little rest)                           
-12-10---|-----------------------------|---------|---------|--------|---------
-------13|-11-----11-13--------8^b10--6|---------|---------|--------|---------
---------|----14--------12-------------|-----3-3-|----3--3-|----3-3-|----3-3--
---------|-----------------------------|-3---3-3-|-3--3--3-|-3--3-3-|-3--3-3--
---------|-----------------------------|-3---1-1-|-3--1--1-|-3--1-1-|-3--1-1--
---------|-----------------------------|-1-------|-1-------|-1------|-1-------
                                                                              
-----------------------------13|------------------------------------------|---
----------13--13-15-15----15---|-13------------------------13-------------|---
-14-14-14--------------15------|----14h15p14-12-10---14-15----12b14r12--10|---
-------------------------------|------------------------------------------|---
-------------------------------|------------------------------------------|---
-------------------------------|------------------------------------------|---
                                                                              
-----------------------------------------|----------------------------13|-----
-------------------12-13-----------------|----------13-13-15-15\11-15---|-13--
-----10-12---14b15------------14b16r14-12|-14-14-14---------------------|-----
-/12----------------------15-------------|------------------------------|-----
-----------------------------------------|------------------------------|-----
-----------------------------------------|------------------------------|-----
                                                                              
------------------------------------|-------------------------------13--------
-12-10-15b17-13-15-15b17-15b18r17---|-13-13-13-15-15-------13-15-13-----------
----------------------------------14|----------------12-12-------------14-----
------------------------------------|-----------------------------------------
------------------------------------|-----------------------------------------
------------------------------------|-----------------------------------------
                                                                              

---------|-------------------------13------------------------------------|----
-13b15r13|-13-15-15-------13-15-13----13-13b15-------------------12-13-15|--/-
---------|----------12-12-------------------------------12-14-15---------|----
---------|-------------------------------------12-14-15------------------|----
---------|---------------------------------------------------------------|----
---------|---------------------------------------------------------------|----
                                                                              
---------------------------|----17-18-----------------------------------------
-18-20-18-20b22-17h18p15-17|-20-------20-15-15-15-17b18--18p17p15-------------
---------------------------|--------------------------------------18p17p15----
---------------------------|--------------------------------------------------
---------------------------|--------------------------------------------------
---------------------------|--------------------------------------------------
                                                                              
---------|-15b17--17-20-15--17-15-13-|----------------------------------------
---------|---------------------------|-17-15-13--13-15-13-13------------------
---------|---------------------------|----------------------------------------
-18p17p15|---------------------------|----------------------------------------
---------|---------------------------|----------------------------------------
---------|---------------------------|----------------------------------------
                                                               
-------------------------|-15-15-18-15---------------20------------------|----
-------------------------|--------------13-13-13--------20/22-20h22p20-18|----
-------------------------|-----------------------------------------------|----
-------------------------|-----------------------------------------------|----
-------------------------|-----------------------------------------------|----
-------------------------|-----------------------------------------------|----
                                                   
------------|-----------------------------------------------------------------
-18h20p18\17|--17h18p17-15-17-18-20-------------------------------------------
------------|-----------------------------------------------------------------
------------|-----------------------------------------------------------------
------------|-----------------------------------------------------------------
------------|-----------------------------------------------------------------
                                     (dive with whammy bar and hold note)  
Comments