Trans Siberian Orchestra - Nutcracker Suite Chords & Tabs

 

Nutcracker Suite Chords & Tabs

Trans Siberian Orchestra Chords & Tabs

Version: 1 Type: Tab 3 ratings
1 star 2 stars 3 stars 4 stars 5 stars
comments

Nutcracker Suite Tab

----|-------------|----|---------|-----------------------|--------------------
----|-------------|----|---------|-----------------------|--------------------
----|-------------|----|---------|-----------------------|--------------------
-2--|--2----------|-2--|-2-------|-7-7-----6-6-----5-5---|-----------2--------
-2--|--2----------|-2--|-2-------|-5-5-5^--4-4-4^--3-3-3^|-----------2--------
-0--|--0----------|-0--|-0-------|-----------------------|-5b6r5-3-2-0--------

-------------|-------------|------------------------|-------------------------
-------------|-------------|------------------------|-------------------------
-------------|-------------|------------------------|-------------------------
------------2|-----------2-|-7-7-----6-6-----5-5----|----2---2----------------
------------2|-----------2-|-5-5-5^--4-4-4^--3-3-3^-|--2---3---2--3-2---------
--5b6r5-3-2-0|-5b6r5-3-2-0-|------------------------|-----------------5-3-----
                                                                              
------------------|---------------------|-----------|----------|--------------
------------------|---------------------|-----------|----------|--------------
------------------|---------------------|-----------|----------|-5--4--2--5---
-3--2-------------|---------------------|-5-------5-|-5-------5|-5--4--2--5---
-1--0--5--4-------|-2--3--2--3--2--3----|-5-------5-|-5-------5|-3--2--0--3---
-------3--2-------|---------------------|-3-------3-|-3-------3|--------------
                                                                              
-------------|-----------|----------|-----------|------------|----------------
-------------|-----------|----------|-----------|------------|----------------
--7--4--5--7-|-----------|----------|-5--4--2--5|-7--5--4--7-|-5--4--2--5-----
--7--4--5--7-|-5-------5-|-5------5-|-5--4--2--5|-7--5--4--7-|-5--4--2--5-----
--5--2--3--5-|-5-------5-|-5------5-|-3--2--0--3|-5--3--2--5-|-3--2--0--3-----
-------------|-3-------3-|-3------3-|-----------|------------|----------------
                                                                              
-------------|------------|------------|------------|-------------|-----------
-------------|------------|------------|------------|-------------|-----------
--7--5--4--7-|-5--2--4--7-|-5--2--4--7-|-5--4--5--4-|--5--4--7----|-----------
--7--5--4--7-|-5--2--4--7-|-5--2--4--7-|-5--4--5--4-|--5--4--7--5-|---4-4-----
--5--3--2--5-|-3--0--2--5-|-3--0--2--5-|-3--2--3--2-|--3--2--5--5-|---4-4-----
-------------|------------|------------|------------|-----------3-|-0-2-2-----
                                                                              
--------|---------------|---------------19b21-17---|--------------|-----------
--------|---------------|------------------------19|--------------|-----------
--------|---------------|--------------------------|--------------|-----------
----4-4-|---4-4-----4-4-|---4-4----4-4-------------|---4-4----4-4-|---4-4-----
----4-4-|---4-4-----4-4-|---4-4----4-4-------------|---4-4----4-4-|---4-4-----
--0-2-2-|-0-2-2---0-2-2-|-0-2-2--0-2-2-------------|-0-2-2--0-2-2-|-0-2-2-----
                                                                              
--------|---------------|-----------|----------------|---------------|--------
--------|---------------|-15b17-14--|----------------|---------------|--------
--------|---------------|-----------|----------------|---------------|--------
----4-4-|---4-4-----4-4-|-----------|---4-4-----4-4--|---4-4-----4-4-|---4-4--
----4-4-|---4-4-----4-4-|-----------|---4-4-----4-4--|---4-4-----4-4-|---4-4--
--0-2-2-|-0-2-2---0-2-2-|-----------|-0-2-2---0-2-2--|-0-2-2---0-2-2-|-0-2-2--
                                                                              
--------|-10b12^---|---------------|--------------|--------------|------------
--------|--------7-|---------------|--------------|--------------|------------
--------|----------|---------------|--------------|--------------|------------
----4-4-|----------|---4-4-----4-4-|---4-4----4-4-|---4-4----4-4-|---4-4---4--
----4-4-|----------|---4-4-----4-4-|---4-4----4-4-|---4-4----4-4-|---4-4---4--
--0-2-2-|----------|-0-2-2---0-2-2-|-0-2-2--0-2-2-|-0-2-2--0-2-2-|-0-2-2-0-2--
                                                                              
[ Tab from: http://www.guitartabs.cc/tabs/t/trans_siberian_orchestra/nutcracker_suite_tab.html ]
---|--------------------------------|-----------------------------------------
---|--------------------------------|-----------------------------------------
---|--7-----6-----7-----6-----7^----|-7-----6-----7-----6-----7^--------------
-4-|----7-5---7-5---7-5---7-5----7-5|---7-5---7-5---7-5---7-5----7-5----------
-4-|--------------------------------|-----------------------------------------
-2-|--------------------------------|-----------------------------------------
                                                                              
-------------------------------|-------------------------------|--------------
-------------------------------|-------------------------------|--------------
-7-----6-----7-----6-----7^----|-7-----6-----7-----6-----7^----|--------------
---7-5---7-5---7-5---7-5----7-5|---7-5---7-5---7-5---7-5----7-5|-4-4-4----4---
-------------------------------|-------------------------------|---4-4----4---
-------------------------------|-------------------------------|-0-2-2--0-2---
                                                                              
---|---------------|--------------|--------------|----------------------------
---|---------------|--------------|--------------|----------------------------
---|---------------|--------------|--------------|-10-10--13-13--25--10-13----
-4-|----4-4----4-4-|---4-4----4-4-|---4-4----4-4-|-11-11--14-14--16--11-14----
-4-|----4-4----4-4-|---4-4----4-4-|---4-4----4-4-|----------------------------
-2-|--0-2-2--0-2-2-|-0-2-2--0-2-2-|-0-2-2--0-2-2-|----------------------------
     (repeat these riffs for 4 times.......................................)  
----------|---------------|---------------|----------------|------------------
----------|---------------|---------------|-20-------------|------------------
----------|---------------|---------------|----------------|------------------
-5--------|---------5-5-5-|-5-------5-5-5-|-5--------5-5-5-|-5------5-5-5-----
-5--------|---------5-5-5-|-5-------5-5-5-|-5--------5-5-5-|-5------5-5-5-----
-3--------|---------3-3-3-|-3-------3-3-3-|-3--------3-3-3-|-3------3-3-3-----
                                                                              
------------------------------------------------------------------------------
------------------------------------------------------------------------------
-----------------------------------------------------------4------------------
-2---------------------------------------------------------4------------------
-2---------------------------------------------------------2------------------
-0----------------------------------------------------------------------------
                                                      (fade in on this chord) 
------------|--------------|------------|-------------------------|-15-15-14--
------------|--------------|------------|-------------------------|-----------
------------|--------------|-5--4--2--5-|-7--4--5--7--------------|-----------
-5---------5|-5----------5-|-5--4--2--5-|-7--4--5--7--------------|-----------
-5---------5|-5----------5-|-3--2--0--3-|-5--2--3--5--------------|-----------
-3---------3|-3----------3-|------------|-------------------------|-----------
                                                    (quick climb)             
-15-15-12-------12|---------------------------|---------------|---------------
----------15-13---|-15-15-14-15-15-12-------12|---------------|-12------------
------------------|-------------------14-12---|-14--12--11--14|-----14--12----
------------------|---------------------------|---------------|---------------
------------------|---------------------------|---------------|---------------
------------------|---------------------------|---------------|---------------
                                                                              
-------|--------|-------------------------------------------------|-----------
-------|--------|-------------------------------------------------|-7-8-------
-11-12-|--------|-------------------------------------------------|-----7-----
-------|--------|-------------------------------------------------|-------9---
-------|--------|-------------------------------------------------|-----------
-------|--------|-------------------------------------------------|-----------
         (rest)   (quick climb..kinda hard to figure out exactly)             


----------|--------------------------------|--------------------|-------------
-10-8-7---|---------9----------------------|--------------------|-------------
--------7-|-9-11-12------------------------|-5-4-5--6-5-6--7-6-7|-5-4-5--6-5--
----------|--------------------------------|--------------------|-------------
----------|--------------------------------|--------------------|-------------
----------|--------------------------------|--------------------|-------------
                      (another fast climb)                                    
---------|----------------------------------------|-15-15-14-15-15-12---------
---------|-13-12-13--13-12-13---------------------|-------------------15-13---
-6--7-6-7|----------------------------------------|---------------------------
---------|----------------------------------------|---------------------------
---------|----------------------------------------|---------------------------
---------|----------------------------------------|---------------------------
                              (and another climb)                             
-12|---------------------------|-------------|------------|-15-15-14-15-15----
---|-15-15-14-15-15-12-------12|-------------|-12---------|-------------------
---|-------------------14-12---|-14-12-11-14-|----14-12---|-------------------
---|---------------------------|-------------|------------|-------------------
---|---------------------------|-------------|------------|-------------------
---|---------------------------|-------------|------------|-------------------
                                                                              
-12-------12|---------------------------|------------|------------|-----------
----15-13---|-15-15-14-15-15-12-------12|------------|-12-------12|-----------
------------|-------------------14-12---|-14-12-11-14|----14-12---|-14-12-11--
------------|---------------------------|------------|------------|-----------
------------|---------------------------|------------|------------|-----------
------------|---------------------------|------------|------------|-----------
                                                                              
---|------------|------------|------------|---------------------------14------
---|-12-------12|------------|-12-------12|-----------------------14----------
-14|----14-12---|-14-12-11-14|----14-12---|-14-12-14-12-14-12-14--------------
---|------------|------------|------------|-----------------------------------
---|------------|------------|------------|-----------------------------------
---|------------|------------|------------|-----------------------------------
Comments