Trans-siberian Orchestra - Christmas Dreams Chords & Tabs

 

Christmas Dreams Chords & Tabs

Trans-siberian Orchestra Chords & Tabs

Version: 1 Type: Tab 0 ratings
1 star 2 stars 3 stars 4 stars 5 stars
comments

Christmas Dreams Tab

   
Christmas Dreams, Song 3 on The Lost Christmas Eve
(1/2 down tuning)
(.44)
E-------------------------------|---------|
B-------------------------------|---------|
G---2---2---2---2---------2---2-|-7-------|
D-2-2-2-2-2-2-2-2-(x2)-2-2-2-2-|-7-7-2x4|
A-2-0-2-0-2-0-2-0-------2-0-2-0-|-5-7-2---|
E-0---0---0---0---------0---0---|---5-0---|
(1.30)
E---------------|
B---------------|
G-7-------------|
D-7-------------|
A-5-7-2222-2222-|
E---50000-0000-| (repeats a lot)
      *********
(2.17)
E---------------------------------------|
B---------------------------------------|
G-9---9-9---9-6-9-9-6-9-6-9-9-6-9---9-9-|
D---9-----9-----------------------9-----|
A---------------------------------------|
E---------------------------------------|
Repeats throughout

This plays over above riff
E----------------------------------------------|
B-9---9-9---11----11-11-10----10-10----9---9-9-|
G---9-----9----11----------11-------11---9-----|
D----------------------------------------------|
A----------------------------------------------|
E----------------------------------------------|
Repeats until 2.48
(2.48)
E-16p12-------16p12-------16p12-------16p12-------|
B-------14p12-------14p12-------14p12-------14p12-|
G-------------------------------------------------|
D-------------------------------------------------|
A-------------------------------------------------|
E-------------------------------------------------|

E-18p14-------18p14-------18p14-------18p14-------|
B-------16p14-------16p14-------16p14-------16p14-|
G-------------------------------------------------|
D-------------------------------------------------|
A-------------------------------------------------|
E-------------------------------------------------|
[ Tab from: http://www.guitartabs.cc/tabs/t/trans_siberian_orchestra/christmas_dreams_tab.html ]
E-17p12-------17p12-------17p12-------17p12-------|
B-------15p12-------15p12-------15p12-------15p12-|
G-------------------------------------------------|
D-------------------------------------------------|
A-------------------------------------------------|
E-------------------------------------------------|


E-16p12-------16p12-------16p12-------16p12-------|
B-------14p12-------14p12-------14p12-------14p12-|
G-------------------------------------------------|
D-------------------------------------------------|
A-------------------------------------------------|
E-------------------------------------------------|

E-16p12-------16p12-------16p12-------16p12-------|
B-------14p12-------14p12-------14p12-------14p12-|
G-------------------------------------------------|
D-------------------------------------------------|
A-------------------------------------------------|
E-------------------------------------------------|

E-18p14-------18p14-------18p14-------18p14-------|
B-------16p14-------16p14-------16p14-------16p14-|
G-------------------------------------------------|
D-------------------------------------------------|
A-------------------------------------------------|
E-------------------------------------------------|

E-17p12-------17p12-------17p12-------17p12-------16-|
B-------15p12-------15p12-------15p12-------15p12----|
G----------------------------------------------------|
D----------------------------------------------------|
A----------------------------------------------------|
E----------------------------------------------------|

E-----------|
B-----------|
G-----------|
D-----------|
A-2222-22222
E-0000-00000
  **********
repeats a lot (still playing)
(3.31)
E---------|
B---------|
G-2-2-2-1-|
D-2-2-2-2-|
A-0-0-0-2-|
E-------0-|

-End

*= Palm Mute
p= pull off

Have fun with this one, Rock on..comments always welcome
Comments