Trans-siberian Orchestra - Christmas Cannon Chords & Tabs

 

Christmas Cannon Chords & Tabs

Trans-siberian Orchestra Chords & Tabs

Version: 1 Type: Tab 0 ratings
1 star 2 stars 3 stars 4 stars 5 stars
comments

Christmas Cannon Tab

Trans Siberian Orchestra 
"Christmas Cannon"
Tabbed by Kevin Cruz

I tabbed it by ear and I think its done on a bass or cello.
I did it on a guitar

Standard Tunning

Note: hold notes like bar chords so you can let it ring

4/4 timing


This whole part is played through out the whole song
|--------5--|-----------|--------2--|-----------|
|------7----|--------5--|------3----|-----------|
|----7------|------6----|----4------|--------2--|
|--0--------|----7------|-----------|------4----|
|-----------|--0--------|--2--------|----5------|
|-----------|-----------|-----------|--2--------|

|-----------|-----------|-----------|-----------|
|--------3--|-----------|--------3--|--------5--|
|------4----|--------2--|------4----|------6----|
|----5------|------4----|----5------|----7------|
|-----------|----5------|-----------|-----------|
|--3--------|--2--------|--3--------|--5--------|
[ Tab from: http://www.guitartabs.cc/tabs/t/trans_siberian_orchestra/christmas_cannon_tab.html ]
then this part is done by violins
(credit for this part is given for the person who tabbed it)

|-12--9-10-12--9-10-12--|---------7-9-10-9-------9----------------------|
|-----------------------|---7-9-10----------10-12--------7--------------|
|-----------------------|-9-------------------------6-7-9--9-7-9--6-7-9-|
|-----------------------|-----------------------------------------------|
|-----------------------|-----------------------------------------------|
|-----------------------|-----------------------------------------------|


|-------------------------------------------------------9-10-12|
|---7-------------------------7--7---7-9-10---7-9-10-12--------|
|-7--9-7-6---6-------6----7-9--7---9--------9------------------|
|----------9---9-7-9-------------------------------------------|
|--------------------------------------------------------------|
|--------------------------------------------------------------|
Comments