Trans-siberian Orchestra - Carol Of The Bells Chords & Tabs

 

Carol Of The Bells Chords & Tabs

Trans-siberian Orchestra Chords & Tabs

Version: 2 Type: Tab

Carol Of The Bells Tab

   
author:astrid_punk91          /
email:fadingescape@yahoo.com /    tuning: e B G D A e
song:carol of the bells     /
___________________________/  

this song is played awfully fast, so this is a hard song if you're not that good...


e|-------------------|-----------------------------------------------------|
B|-----8-7------8-7--|-----------------------------------------------------|
G|---9--------9------|-----------------------------------------------------|
D|-9--------9--------|-----9-9-7-----------------7-9-----9-9-7-------------|
A|-------------------|-7-7-------10-9-7-5-7-9-10-----7-7-------10-9-7-5-7--|
E|-------------------|-----------------------------------------------------|

e|--3-2-3-0--3-2-3-0--    --------------------|
B|--------------------    --8-7-8-5--8-7-8-5--|
G|--------------------    --------------------|
D|-------------------- or --------------------|
A|--------------------    --------------------|
E|--------------------    --------------------|
[ Tab from: http://www.guitartabs.cc/tabs/t/trans_siberian_orchestra/carol_of_the_bells_tab_ver_2.html ]
(descending)
e|--12-12-12-10---------------------------7----------|
B|--------------13-12-12-12-10-8-10-10-10---8-5-5-5--|
G|---------------------------------------------------|
D|---------------------------------------------------|
A|---------------------------------------------------|
E|---------------------------------------------------|

(ascending)
e|---------------5-7-5-----------------5-7-5-----------------12--|
B|-----------7-8-------8-----------7-8-------8-----------7-8-----|
G|-------8-9-------------------8-9-------------------8-9---------|
D|--9-11------------------9-11------------------9-11-------------|
A|---------------------------------------------------------------|
E|---------------------------------------------------------------|

e|--------------------------------------|
B|--------------------------------------|
G|--9-9-9-7-----------------------------|
D|----------10-9-(10)-9-7-9^-7-5-5-4-2--| repeat once
A|--------------------------------------|
E|--------------------------------------|

high riff
e|--12-12-12-10----------------------------------|
B|--------------13-12-(13)-12-10-12^-10-8-8-7-5--|
G|-----------------------------------------------|
D|-----------------------------------------------|
A|-----------------------------------------------|
E|-----------------------------------------------|


that's it...