Trans-siberian Orchestra - After The Fall Chords & Tabs

 

After The Fall Chords & Tabs

Trans-siberian Orchestra Chords & Tabs

Version: 1 Type: Tab 0 ratings
1 star 2 stars 3 stars 4 stars 5 stars
comments

After The Fall Tab

   
After The Fall, #15 on Beethoven CD
Standard Tuning
(.32)
E-----------------------------------------|
B-----------------------------------------|
G---------------3------3----3---3--3-----|
D-----------3-5-3-3-3-5-3-3-3-3-3-3-3-3-5-|
A-3333-3333-3-3-1-3-3-3-1-3-1-3-1-3-1-3-3-|
E-----------1-----1-1-----1---1---1---1---|
  *********
(1.46)
E-----------------------------------------|
B-----------------------------------------|
G---------------3------3----3---3--3-----|
D-----------3-5-3-3-3-5-3-3-3-3-3-3-3-3-5-|
A-3333-3333-3-3-1-3-3-3-1-3-1-3-1-3-1-3-3-|
E-----------1-----1-1-----1---1---1---1---|
  *********
Piano Riff..
(2.49) Very softly played..Repeats
E-------------------------------|
B-------------------------------|
G-4-0-5-0-7-0-0-4-0-5-0-7-5-7-5-|
D-------------------------------|
A-------------------------------|
E-------------------------------|
  ****************************
These chords go until end, and with the above riff
E---------|
B---------|
G-----5---|
D-5-3-5-5-|
A-5-3-3-5-|
E-3-1---3-|
(3.39)  (couple bends in there)Repeat 2x's on 2nd time play ()
E--------------------------------------------------------|
B--------------------------------------------------------|
G-----16---17---19-------16---17---19-17-19-17-(16b17r16-|
D-/17----17---17---17-17----17---16----------------------|
A--------------------------------------------------------|
E--------------------------------------------------------|
(couple bends in there)Repeat 2x's on 2nd time play ()
E--------------------------------------------------------|
B--------------------------------------------------------|
G-----16---17---19-------16---17---19-17-19-17-(16b17r16-|
D-/17----17---17---17-17----17---16----------------------|
A--------------------------------------------------------|
E--------------------------------------------------------|
(3x's)
E----------------15-|
B-(18-17-15-17------|
G-------------17)---|
D-------------------|
A-------------------|
E-------------------|
THESE CHORDS GO WITH THIS

(repeats) then end
E---------------|
B---------------|
G---5-3-5-------|
D(3-5-3-5-3)--5-|
A(3-------3)--5-|
E-------------3-|

/=slide into
*=Palm Mute
b/r=bend/release

-End
[ Tab from: http://www.guitartabs.cc/tabs/t/trans_siberian_orchestra/after_the_fall_tab.html ]
Comments