Train - My Private Nation Chords & Tabs

 

My Private Nation Chords & Tabs

Train Chords & Tabs

Version: 1 Type: Tab 0 ratings
1 star 2 stars 3 stars 4 stars 5 stars
comments

My Private Nation Tab

   
-------------------------------------------------------------------------------
			     MY PRIVATE NATION - Train
-------------------------------------------------------------------------------

Tabbed by:Kyle Rosher
Email: themusicman128@yahoo.com

Tuning: Standard

Verse (Palm Mute)

Guitar 1
e|---------------------------------------------------------------------------|
B|---------------------------------------------------------------------------|
G|---------------------------------------------------------------------------|
D|---6-6-6-6-6-6-6-7-7-7-7-7-7-7-7-6-6-6-6-6-6-6-6-6-6-6-6-6-6-6-6-----------|
A|---6-6-6-6-6-6-6-7-7-7-7-7-7-7-7-6-6-6-6-6-6-6-6-6-6-6-6-6-6-6-6-----------|
E|---4-4-4-4-4-4-4-5-5-5-5-5-5-5-5-4-4-4-4-4-4-4-4-4-4-4-4-4-4-4-4-----------|4x
     x x x x x x x x x x x x x x x x x x x x x x x x x x x x x x x 

Guitar 2 (Plays this little riff a few times)
e|---------------|
B|---------------|
G|---------11----|
D|------11-------|
A|----9----------|
E|---------------|


Chorus (Listen to song for rhythm)
[ Tab from: http://www.guitartabs.cc/tabs/t/train/my_private_nation_tab.html ]

e|--------------------------------------------------------|
B|--------------------------------------------------------|
G|------------------------------8-----6-------------------|
D|---7----------4---------2-----8-----6-----8-----4-------|
A|---7----------4---------2-----6-----4-----8-----4-------|
E|---5----------2---------0-----------------6-----2-------|

e|--------------------------------------------------------|
B|--------------------------------------------------------|
G|---------8-----6----------------------------------------|
D|---2-----8-----6------8-----4------7-----4--------------|
A|---2-----6-----4------8-----4------7-----4--------------|
E|---0------------------6-----2------5-----2--------------|

Thats pretty much it.
The song goes back and forth between the verse and chorus after that.
If you have any questiosn email me.


| /  slide up
| \  slide down
| h  hammer-on
| p  pull-off
| ~  vibrato
| +  harmonic
| x  Mute note

===============================================================================
Comments