Train - Drops Of Jupiter Chords & Tabs

 

Drops Of Jupiter Chords & Tabs

Train Chords & Tabs

Version: 7 Type: Tab 0 ratings
1 star 2 stars 3 stars 4 stars 5 stars
comments

Drops Of Jupiter Tab

   
drops of jupiter,mars, earth....
by train

this is how i play it! sounds good to me...

G-320033
C-X32010
Dm-XX0231
D5-XX032X
F-XO3211

guitar doesnt play on verse

BRIDGE,'NAANAA PART':
C G F F

CHORUS:
G D5 F C, G D5 Dm F
[ Tab from: http://www.guitartabs.cc/tabs/t/train/drops_of_jupiter_tab_ver_7.html ]
SOLO
----------------------------------------------------3-----
---3---5---3---5---3H5--3---5---3---5---3H5---3P1-1-------
---0---0---0---0---0--- 0---0---0---0---0-----0--0--------
----------------------------------------------------------
----------------------------------------------------------
----------------------------------------------------------

----------------3-----------------------------------------
---3---X-3P1-1--------------------------------------------
---0---X-0--0---------------------------------------------
----------------------------------------------------------
----------------------------------------------------------
----------------------------------------------------------

thats it!hisap pelir!!
Comments