Trail Of Dead - Homeage Chords & Tabs

 

Homeage Chords & Tabs

Trail Of Dead Chords & Tabs

Version: 1 Type: Tab 0 ratings
1 star 2 stars 3 stars 4 stars 5 stars
comments

Homeage Tab

And You Will Know Us By The Trail Of Dead - Homeage
Tabbed By: George Rees
EMail: r_e_e_s57@hotmail.com


standard tuning

e----------------------
B----------------------
G----------------------
D--7---3---9-----------
A--7---3---9-----------
E--5---1---7-----------

e------------------------------------
B-----------------------3----7/8\7---
G-----------7--------4---------------
D--0--5--7--------4------------------
A------------------------------------
E------------------------------------
[ Tab from: http://www.guitartabs.cc/tabs/t/trail_of_dead/homeage_tab.html ]
e-----------
B-----------
G-----------
D-----9-----
A-----9-----
E-----7-----

e------------------------
B------------------------
G------------------------
D------------------------
A------------------------
E--1----0----3----2------

e------------------------
B--10---9----8----7------
G--12---11---10---9------
D--12---11---10---9------
A--10---9----8----7------
E------------------------


thats the tab as good as i can remember...any comments, tab sites, 
abuse, or bomb threats....u can always email me at r_e_e_s57@hotmail.com
Comments