Tragically Hip - Vaccination Scar Chords & Tabs

 

Vaccination Scar Chords & Tabs

Tragically Hip Chords & Tabs

Version: 1 Type: Tab 0 ratings
1 star 2 stars 3 stars 4 stars 5 stars
comments

Vaccination Scar Tab

   
This song is very easy to learn, but can pretty confusing if your new to playing guitar.

E[-5-5-7-7-5-5-7-7--------------------------------]
B[-5-5-7-7-5-5-7-7--------------------------------]
G[------------------------------------------------] 
D[------------------------------------------------]
A[------------------------------------------------]

 VERSE
    G      A    B      
E[-----------------------------------]
B[-----------------------------------]
G[-------2-2-2-4-4-4-4-4-4-4-4-4-4---]
D[-5-5-5-0-0-0-2-0-2-0-2-0-2-0-2-2---]
A[-3-3-3-----------------------------]

[ Tab from: http://www.guitartabs.cc/tabs/t/tragically_hip/vaccination_scar_tab.html ]
CHORUS  2X
    G      A    B      
E[------------------------]
B[------------------------]
G[---------2-2-2-2-4-4-4-4]
D[-5-5-5-5-0-0-0-0-2-0-2-2]
A[-3-3-3-3----------------]




        
E[----------------------------------------------------------]
B[----------------------------------------------------------]
G[----------------------------------------------------------]
D[-5-5-5-5-2-2-2-2-4-4-4-4-4-4-4-4-4-4----------------------]
A[-3-3-3-3-0-0-0-0-2-0-2-0-2-0-2-0-2-2----------------------]


               E
E[------------------------------------]
B[------------------------------------]
G[-----------------4-4-4-4-4-4-4-4-4-4]
D[-5-5-5-5-2-2-2-2-2-0-2-0-2-0-2-0-2-2]
A[-3-3-3-3-0-0-0-0--------------------]



Comments