Tragically Hip - Poets Chords & Tabs

 

Poets Chords & Tabs

Tragically Hip Chords & Tabs

Version: 2 Type: Tab 0 ratings
1 star 2 stars 3 stars 4 stars 5 stars
comments

Poets Tab

   
artist: The Tragically Hip
song:   poets
     
          chords-c5-x355xx
                 Bb5-x133xx

 riff a -INTRO-(PLAY 4 TIMES THEN VOCALS STARTS)
 E-------------8---------------------
 B---------8-----8--8----------------
 G-----------8------8-------8---8----
 D------10---------10---X--10--10--X-
 A---10-----------------X--10--10--X-
 E-8---------------------------------


 RIFF B-(STARTS ON Spring Starts When Your Heart Beat's Pounding)
[ Tab from: http://www.guitartabs.cc/tabs/t/tragically_hip/poets_tab_ver_2.html ]
 E-------------8---------------------
 B---------8-----8--8----------------
 G-----------8------8------10--10----
 D------10---------10---X--10--10--X-
 A---10-----------------X---8---8--X-
 E-8---------------------------------

 Chords

 c5                                  Bb5
 Don't Tell Me What The Poets Are Doing
 c5                                       Bb5
 Don't Tell Me That They're Talking Tough
 c5                                    Bb5
 Don't tell me that they're antisocial
 c5                    Bb5
 Somehow not antisocial enough         thats right

 riff a (starts on porn speaks to its splintered legions)x2

 chords after that and their the same way 
Comments