Tragically Hip - No Threat Chords & Tabs

 

No Threat Chords & Tabs

Tragically Hip Chords & Tabs

Version: 1 Type: Tab

No Threat Tab

   
Hey it's my first tab so sry if its kinda scratchy, but its right. It seems no one has 
of this song, but it's amazing and its part of their new box set that they just released 
BUY IT ITS GREAT! Anyways here goes:

Intro/Verse (* let it ring)

   C   D#  F  C#
E|3-3--6-- 8--4*----------|
A|3-3--6-- 8--4*----------|
D|5-3--8--10--6*----------|  Intro x2    (so x6 at the start)
G|5-5--8--10--6*----------|  Verse x4
B|5-5--8--10--6*----------|  End x1
e|3-3--6-- 8--4*----------|

   G               Bb              C               D#
E|3-3-3-3-3-3-3-3-1-1-1-1-1-1-1-1-3-3-3-3-3-3-3-3-6-6-6-6-6-6-6-6|
A|5-5-5-5-5-5-5-5-1-1-1-1-1-1-1-1-3-3-3-3-3-3-3-3-6-6-6-6-6-6-6-6|PreChor x2
D|5-5-5-5-5-5-5-5-3-3-3-3-3-3-3-3-5-5-5-5-5-5-5-5-8-8-8-8-8-8-8-8|
G|4-4-4-4-4-4-4-4-3-3-3-3-3-3-3-3-5-5-5-5-5-5-5-5-8-8-8-8-8-8-8-8|
B|3-3-3-3-3-3-3-3-3-3-3-3-3-3-3-3-5-5-5-5-5-5-5-5-8-8-8-8-8-8-8-8|
E|3-3-3-3-3-3-3-3-1-1-1-1-1-1-1-1-3-3-3-3-3-3-3-3-6-6-6-6-6-6-6-6|

[ Tab from: http://www.guitartabs.cc/tabs/t/tragically_hip/no_threat_tab.html ]
E|4*-3-3-3-3-x-x-x-x-1-1-3-3-x-x|
A|4*-3-3-3-3-x-x-x-x-1-1-3-3-x-x|
D|6*-5-5-5-5-x-x-x-x-3-3-5-5-x-x| Chorus x6
G|6*-5-5-5-5-x-x-x-x-3-3-5-5-x-x|
B|6*-4-4-4-4-x-x-x-x-3-3-5-5-x-x|
e|4*-3-3-3-3-x-x-x-x-1-1-3-3-x-x|
   C#              D#                                            D#
E|4-4-4-4-4-4-4-4-6-6-6-6-6-6-6-6-6|                   |x-x-x-x-6--6--|
A|4-4-4-4-4-4-4-4-6-6-6-6-6-6-6-6-6|  Prelude x6       |x-x-x-x-6--6--|
D|6-6-6-6-6-6-6-6-6-6-6-6-6-6-6-6-6| with this as the  |x-x-x-x-8--8--|
G|6-6-6-6-6-6-6-6-8-8-8-8-8-8-8-8-8|  finale ending    |x-x-x-x-8--8--|
B|6-6-6-6-6-6-6-6-8-8-8-8-8-8-8-8-8|                   |x-x-x-x-8--8--|
e|4-6-6-6-6-6-6-6-8-8-8-8-8-8-8-8-8|                   |x-x-x-x-6--6--|


Song goes:

Intro
Verse
PreChorus
Verse
Prechorus
Chorus
Interlude
Prechorus
Chorus
Ending


So for those of who who dont like the strumming tabed

Intro/Verse/End : C D# F C#
Prechorus : G Bb C D#
Chorus : C# G Bb C
Interlude : C# D#

      E  A  D  G  B  E
C |   3  3  5  5  5  3
C#|   4  4  6  6  6  4
D#|   6  6  8  8  8  6
F |   8  8  10 10 10 8
Bb|   1  1  3  3  3  1
G |   3  5  5  4  3  3


Hope you like my tab, if you get a chance look into other Tragically hip songs, they're 
Enjoy


~Mike