Tragically Hip - Heart Of The Melt Chords & Tabs

 

Heart Of The Melt Chords & Tabs

Tragically Hip Chords & Tabs

Version: 1 Type: Tab 0 ratings
1 star 2 stars 3 stars 4 stars 5 stars
comments

Heart Of The Melt Tab

A great song from their last album, "In Between Evolution". This is my first
tab...Heh....I got it while fooling around with the Darkest One tab here while listening
to this song. Came pretty easy after that. Listen to the tune to get the rythym down.
Feel free to improve, as always. P.S...anyone know the chords for Gus?

Riff 1

E--------------------------------|
B--------------------------------|
G----------------7-------555-----|
D--22222---------7-------555-----|
A--22222---------5-------333-----|
E--00000---------x-------xxx-----|

Riff 2

E--------------------------------------------|
B--------------------------------------------|
G-------------444-------7---------555--------|
D----22-------444-------7---------555--------|
A----22-------222-------5---------333--------|
E----00-------xxx-------x---------xxx--------|

Riff 3

E----------------------------------------------------------------|
B----------------------------------------------------------------|
G-----------44^-555---444-------------44--------555--------------|
D----222----44^-555---444-------222---44---55---555--------------|
A----222----22^-333---222-------222---22---55---333--------------|
E----000----xx--xxx---xxx-------000---xx---33---xxx--------------|


Riff 4
[ Tab from: http://www.guitartabs.cc/tabs/t/tragically_hip/heart_of_the_melt_tab.html ]
E---------------------------------------------------------------|
B---------------------------------------------------------------|
G-----------444---555---------777---555---444---555-------------|
D-----222---444---555---555---777---555---444---555-------------|
A-----222---222---333---555---555---333---222---333-------------|
E-----000---xxx---xxx---333---xxx---xxx---xxx---xxx-------------|

Riff 1 (intro)

                           (riff 2)
There's me then there's you
and I could dance with a puck
in a telephone booth
you said, "I don't give a fuck

                    (riff 3)
besides enough about you and you're evil's banal
cause as soon as Joni says blue
you're somewhere else"
                       (riff 1)

                          (riff 2)
there's me then there's you
and i could not hear it yet
from a telephone booth
i do my hungover best

                     (riff 3)
and say "enough about you and your representative hell
i jump in when you do
like there's nowhere else

(riff 4)
and then of course, there's the dorsal fin
closing in that you can't outswim"
"it's not him that i gotta outswim" you said
"just you" you said
"just you"
                         (riff 3)
and then the heart of the melt
there's the narrowest flume
there's the somewhere else
when i'm with you, there's nowhere else
                     (riff 2)
there's me and there's you
there's me and there's you
if there were several yous
that would not be enough
there's me and there's you
you're a beautiful you, a beautiful you
could not say enough
if there were several truths
it would not be enough
we're a beautiful two
Comments