Traffic - John Barleycorn Must Die Chords & Tabs

 

John Barleycorn Must Die Chords & Tabs

Traffic Chords & Tabs

Version: 1 Type: Tab 0 ratings
1 star 2 stars 3 stars 4 stars 5 stars
comments

John Barleycorn Must Die Tab

   
Song: John Barleycorn must die
Artist: Traffic

IMPORTANT!!!: Use a capo on the 7th fret! This is what Stevie Winwood did!


e-----------2-------------------------------
b--------------3--------------1-------------
g-------2---------2-------0-----------------
d---0---------------------------------------
a---------------------3---------------------
e-------------------------------------------


e------------------------------------------------
b----------0------1--0-------------1--0----------
g------0-----------------2--2------------2--2----
d------------------------------------------------
a--2----------0----------------0-----------------
e------------------------------------------------


                       REPEAT TWICE
[ Tab from: http://www.guitartabs.cc/tabs/t/traffic/john_barleycorn_must_die_tab.html ]
Then Strum d d d d d  c c c  em em em am  am am am am am am am am am


Repeat top once more, but instead of

e-----------2-------------------------------
b--------------3--------------1-------------
g-------2---------2-------0-----------------
d---0---------------------------------------
a---------------------3---------------------
e-------------------------------------------

do:

e-----------1-------------------------------
b--------------3--------------1-------------
g-------2---------2-------0-----------------
d---0---------------------------------------
a---------------------3---------------------
e-------------------------------------------

e------------------------------------------------
b----------0------1--0-------------1--0----------
g------0-----------------2--2------------2--2----
d------------------------------------------------
a--2----------0----------------0-----------------
e------------------------------------------------
Comments