Trace Adkins - Rough And Ready Chords & Tabs

 

Rough And Ready Chords & Tabs

Trace Adkins Chords & Tabs

Version: 1 Type: Tab 0 ratings
1 star 2 stars 3 stars 4 stars 5 stars
comments

Rough And Ready Tab

   
-------------------------------------------------------------------------------
			     Rough & Ready - Trace Adkins
-------------------------------------------------------------------------------
Tabbed by: Marv D.
Email: mrmcclung@musician.net

Tuning: Normal

Intro  2x
e|---------------------------------------------------------------------------|
B|------5--------------------------------------------------------------------|
G|--4b-----4b---2p0---0-2---5p2---4-4---2p0------2---------------------------|
D|--------------------------5p2---4-4---2p0----------------------------------|
A|------------------0-----------0-----0---------0----------------------------|
E|-------------------------------------------3b------------------------------|

e|---------------------------------------------------------------------------|
B|------5----------------------------------8---------------------------------|
G|--4b-----4b---2p0---0-2---4p0---5-5---/9---7\5-----------------------------|
D|--------------------------4p0---5-5------------7---------------------------|
A|------------------0-----------0-----0--------------------------------------|
E|---------------------------------------------------------------------------|
[ Tab from: http://www.guitartabs.cc/tabs/t/trace_adkins/rough_and_ready_tab.html ]
Verse Several Times
e|---------------------------------------------------------------------------|
B|---------------------------------------------------------------------------|
G|-----2----2---2p0----22----------------------------------------------------|
D|---------------------------------------------------------------------------|
A|--0-----0--0------0--------------------------------------------------------|
E|------------------------3b-------------------------------------------------|

Chorus  3x
    A           G         F#/G      F            E  (Continue Strumming)
e|----------------------------------1-1-1-1---|--0---------------------------|
B|-----2--2-2---3-3-3-3---3-3-3-3---1-1-1-1---|--0---------------------------|
G|-----2--2-2---0-0-0-0---0-0-0-0---2-2-2-2---|--1---------------------------|
D|-----2--2-2---0-0-0-0---0-0-0-0---3-3-3-3---|--2---------------------------|
A|--0-----0-0---------------------------------|--2---------------------------|
E|--------------3-3-3-3---2-2-2-2-------------|--0---------------------------|

Listen to song for timing.  Fun song.


| /  slide up
| \  slide down
| h  hammer-on
| p  pull-off
| ~  vibrato
| +  harmonic
| x  Mute note
===============================================================================
Comments