Tpau - Heart And Soul Chords & Tabs

 

Heart And Soul Chords & Tabs

Tpau Chords & Tabs

Version: 2 Type: Chords 0 ratings
1 star 2 stars 3 stars 4 stars 5 stars
comments

Heart And Soul Chords

     This is the part that I picked out.

     E-----0-0-----0-0-----1-1-----1-1------------------------|
     A-----1-1-----1-1-----1-1-----0-0------------------------|
     D-----0-0-----2-2-----2-2-----0-0------------------------|
     G-----2-2-----2-2-----3-3-----0-0------------------------|
     B-3-3-----0-0---------3-3-----2-2------------------------|
     E-----------------1-1-----3-3----------------------------|

     Here is another fun part I did.

[ Tab from: http://www.guitartabs.cc/tabs/t/tpau/heart_and_soul_crd_ver_2.html ]
     E---1---1---1-------2---2---2-----0---0---0-------------1-1---------|
     B---1---1---1-------3---3---3-----1---1---1-------------1-1---------|
     G---2---2---2-------2---2---2-----0---0---0-------------2-2---------|
     D-3-------3-------0-------0-------2---2---2-------0-2-3-------------|
     A-----3-------3-4-----0-------0-3-------3-----3-4-------------------|
     E-----------------------------------3-------3-----------------------|

                                 jake_allen@hotmail.com
Comments