Toxik - 47 Seconds Of Sanity Chords & Tabs

 

47 Seconds Of Sanity Chords & Tabs

Toxik Chords & Tabs

Version: 1 Type: Tab 0 ratings
1 star 2 stars 3 stars 4 stars 5 stars
comments

47 Seconds Of Sanity Tab

   
Band:  Toxik
Album: World Circus
Song:  47 Seconds Of Sanity

Copyright (c)  (Road Runner) (1988)
Version 1.0 - (14/10/05)

Transcribed By: Steve
Email:          stephen.elvidge1@ntlworld


.  - palm mute           /  - slide up to
\  - slide down to       ~  - vibrato
h  - hammer on           b  - Bend
p  - pull off            Suffixes for bend
t  - tap                 f  - full bend    h - half bend
ph - pinched harmonic    q  - quarter bend t - tap bend
*  - see comment         ^  - Hold bend    r release bend
x  - Stuccatto           ~  - vibrato bend
,  - slight palm mute    () - ghost note, sustained note
"  - tremolo note        <> - harmonic

Tunning E A D G B E
 


  Guitar 1(acoustic) Let notes ring out

E[-3------3-------0-------0-------1--1-------0---1-------------------|
B[---1------1-------1-------1-----0----0---3---3---------------------|
G[------------2-------2-------2----------2-------------2-------------|
D[------2-------2-------2-------2-------------------3----------------|
A[-----------------------------------------2-----------------2-0-----|
E[-------------------------------------------------------------------|
 [Guitar 2(acoustic)
E[-------------------------------------------------------------------|
B[-------------------------------------------------------------------|
G[----------------------------5---4-----/7---------/8--8p6\5---------|
D[-------------------------------------------------------------------|
A[-------------------------------------------------------------------|
E[-------------------------------------------------------------------|


E[-------------------------------------------------------------------|
B[-------1-0--3----1-----------------------1-----1-------------------|
G[-----2------4-------2--1---------------1-----2---1-----------------|
D[---2----------0----------------------2-----2-----------------------|
A[-----------------------2---------3---------------------------------|
E[-------------------------------------------------------------------|
 [
E[--------------1--3p1p0-----------0-1-0-1/3/5/7/8p7-----------------|
B[-6-5\3---------------------0-1-3-----------------------------------|
G[-------5-4-------------1-2-----------------------------------------|
D[-------------------------------------------------------------------|
A[-------------------------------------------------------------------|
E[-------------------------------------------------------------------|


E[-----0--------------0-----------------------------0----------------|
B[-----3------------3---0-------------------3-1-------0---1---3------|
G[------------------------0--2-------------2----2-------2---2--------|
D[---------------------------0---------------------------------------|
A[-3--------------2-------------------------------0------------------|
E[-------------------------------------------------------------------|
 [                              h   h   h
E[-8--7-8-10-8----7------------------------------------5-3-0---------|
B[-------------10---8---8----8-10-6-8-5-6-3-5------------------------|
G[-------------------------------------------------------------------|
D[-------------------------------------------------------------------|
A[-------------------------------------------------------------------|
E[-------------------------------------------------------------------|

[ Tab from: http://www.guitartabs.cc/tabs/t/toxik/47_seconds_of_sanity_tab.html ]
E[---------3-1------------------------------------------------0---0----<5><5>-|
B[-------3------------------------------------------------------2----<5>------|
G[----2--------------1--1--1--1-------2-------0-------0-----2-----------------|
D[-0-----------------2--2--2--2-----2---2---0---0---2-----2-------------------|
A[-------------------2--2--2--2---0-------2-------3-----4---------------------|
E[-----------------0----------------------------------------------------------|
 [                   h   h   ~~~~~
E[----------------------------------------------------0----------------<5>----|
B[-------------3------------------1-------3-------5---5--------------<5>------|
G[---------2-5---5-4-5p4-5----------------------------------------------------|
D[---2-3-5-----------------3-3-2----------------------------------------------|
A[-5------------------------------0-------2-------3-----4---------------------|
E[----------------------------------------------------------------------------|


E[--------4---------------------------------------------1-0----------|
B[---0-1---------------------------------------------1---------------|
G[-2-------------------------------------------------2---------------|
D[-0-------------------------------------------------2---------------|
A[---------------------------------------------------0---------------|
E[-------------------------------------------------------------------|
 [
E[-1-----------0-1-3p1---0-------------------------------------------|
B[-----------3---------3---3-1-0-3-1-0---0---------------------------|
G[-------------------------------------2---2-0---2-0-----------------|
D[---------------------------------------------3-----3-2-3-2-0-------|
A[-------------------------------------------------------------3-----|
E[-------------------------------------------------------------------|


E[----------------------0-------|
B[------------------------3-----|
G[------------1-----------------|
D[------------2-----------------|
A[------------2-----------------|
E[------------0-----------------|
 [            ~~~~~~~~~~~~~
E[------------------------------|
B[------------------------------|
G[------------------------------|
D[-2-0--------------------------|
A[-----3-2-0---------2----------|
E[------------4------------------|


E[-----------------------0------0---------|
B[---1-0-------------------3------3-------|
G[-------0-------------------2------2-----|
D[----------------------------------------|
A[-0--------------------------------------|
E[----------------------------------------|
 [   h h
E[----------------------------------------|
B[-------------------1-3------------------|
G[-------------0-2-4----------------------|
D[-------0-2-3----------------------------|
A[-0-2-3----------------------------------|
E[----------------------------------------|
 [Guitar 3(acoustic)
E[---8-7----------------------------------|
B[-------8--------------------------------|
G[----------------------------------------|
D[----------------------------------------|
A[----------------------------------------|
E[----------------------------------------|

 
E[-----------------------------------------------------------------------|
B[-------1---------------------------------------------------------------|
G[-------2--------------------------1------------------------------------|
D[-------2--------------------------2------------------------------------|
A[-------0--------------------------2------------------------------------|
E[----------------------------------0------------------------------------|
 [
E[-12-13-10-12-8-10-7-8p7------------------------------------------------|
B[------------------------10-9-10-9--------------------------------------|
G[----------------------------------9-7-9/10-7-9-5\4-5-7p5\4-2p1---------|
D[-----------------------------------------------------------------------|
A[-----------------------------------------------------------------------|
E[---------------------------------------------------------------0--(0)--|



END

Comments