Townshend Pete - The Sea Refuses No River Chords & Tabs

 

The Sea Refuses No River Chords & Tabs

Townshend Pete Chords & Tabs

Version: 1 Type: Tab 0 ratings
1 star 2 stars 3 stars 4 stars 5 stars
comments

The Sea Refuses No River Tab

   
#----------------------------------PLEASE NOTE--------------------------------#
#This file is the author's own work and represents their interpretation of the#
#song. You may only use this file for private study, scholarship, or research.#
#-----------------------------------------------------------------------------#

Date: Fri, 3 Oct 1997 00:36:24 -0400 (EDT)
From: Litgo@aol.com
Subject: CRD: Sea_Refuses_No_River by: Pete_Townshend

The Sea Refuses No River
By Pete Townshend
>From all the best cowboys have chinese eyes, 1982

Originally transcribed by Andy Dennis
=============
updated by
Litgo@aol.com
=============

C(no 3)    x35xxx
C6         x322xx or x3221x
C/G.       3x2013
Amaj7      5x665x
D(no 3)    x57xxx
F/A        103211 (use thumb)
Gm         355333 (use thumb)
Gmaj7      3x5432 (use thumb) or 3x443x or 3x0032 (thumb) or x10 9 777





[intro]

C(no 3)  /   /    /                  
C(no 3)  /   /    /    C6   /   /   /   /
Bb  F

[VERSE 1]

Gm   Gm    F/A
Bb   Bb    F/A
Gm   Gm    F/A
Bb


[10th fret]
Bb      F/Eb    Bb   F/Eb 
|----------13------------13----|
|-11---10-------11---10----10--|
|-10---10-------10---10--------|
|-12---10-------12---10--------|
|------------------------------|
|------------------------------|

Bb   F/Eb   Bb  F/Eb 
Bb   F/Eb   Bb  F/Eb 


F [5th fret] Fmaj7
|-5----------5-----
|-6----------5----
|-5----------5----
|-7----------7----
|------------8----
|-----------------

=========================================
[CHORUS I] chords in order of appearance
=========================================

--------------------------------------------------
G Em D C G C/G G C/G Gmaj7 Am C D Am F/C C(no 3rd) 
--------------------------------------------------

[repeat INTRO pattern]

---------------------------------------------------
Verse 2:  G Em D C G C/G Gmaj7 Am C D Am F/C C5 C6
----------------------------------------------------
[ Tab from: http://www.guitartabs.cc/tabs/t/townshend_pete/the_sea_refuses_no_river_tab.html ]

Emaj7 [solo]
e|------------------|---------------|
b|--12------12------|---12----12----|
g|------14------13--|------14-------|
d|------------------|------------14-|

|------------16-|-16-17-16-17-16-17-16-17-|-17----
|--12----12-----|-------------------------|-------
|-----14--------|-------------------------|-
|---------------|-------------------------|

                         E    Emaj7  E   Emaj7  Emaj7 Emaj7 |
e|--14-14--14--16--17--|-19--|

| E    Emaj7  E   Emaj7  Emaj7 Emaj7

                     C(8th fret)     Emaj7     C      
e|-14----14--14-----|---------------|---------|------|
b|-16-14-16--16-----|--18--17--18---|-----17*-|------|
g|------------------|--17--18--17---|-16------|------|
d|------------------|---------------|---------|------|
a|------------------|---------------|---------|------|
e|------------------|---------------|---------|----2~|
                                        *feedback

 Emaj7    C                   E  Emaj7...
|--------|------------------|-----|
|--------|------------------|-----|
|--------|------------------|-----|
|--4-4-6-|--6-6-7-9--11--13-|-14--|
|--------|------------------|-----|
|--------|------------------|-----|

Verse

|-----------15--------------------15----|
|-13----12----------13--------12----12--|
|-12----12----------12--------12--------|
|-14----12----------14--------12--------|
|---------------------------------------|
|---------------------------------------|

C G/F C G/F  G Gmaj7  

|-7----------7----
|-8----------7----
|-7----------7----
|-9----------9----
|------------10---
|-----------------

---------------------------------------------------------------------------------
Verse: A F#m ED(add2) A D/A A D/A  D Amaj7 Bm D  E  Bm G/D D(no3) [harm 7th fret] 
C F G Em  D C G  G C/G G C/G C/G Gmaj7 Am C D Am  F C(no3rd) C6  Bb F G 
---------------------------------------------------------------------------------      

=============
litgo@aol.co

Comments