Townshend Pete - Mary Riff Chords & Tabs

 

Mary Riff Chords & Tabs

Townshend Pete Chords & Tabs

Version: 1 Type: Chords 0 ratings
1 star 2 stars 3 stars 4 stars 5 stars
comments

Mary Riff Chords

   
#----------------------------------PLEASE NOTE---------------------------------#
#This file is the author's own work and represents their interpretation of the #
#song. You may only use this file for private study, scholarship, or research. #
#------------------------------------------------------------------------------#
Date: Fri, 6 Oct 1995 16:00:06 -1000
From: Harlan L Thompson 

MARY- Pete Townshend

E Esus4 E5 Esus4


RIFF 1:                            RIFF 2:
   B B                              A B B A A D D B
E -------------------------------  --------------------
B -4-4-------------------------0-  -2/4-4\2-2/7-7\4----
G -4-4-----2-----0-----0-----0---  -2/4-4\2-2/7-7\4----
D -4-4---2-----0-----0-----0-----  -2/4-4\2-2/7-7\4----
A -2-2-0-------------------------  -0/2-2\0-0/5-5\2----
E -2-2-------3-----2-----0-------  --------------------

CHORDS:
Esus4: 0 2 2 2 0 0  E5: 0 2 2 4 x x  A7sus2: x 0 2 0 0 0 
EaddF#: 0 2 2 1 0 2  EaddG#: 0 2 2 1 0 4   Emaj7: 0 2 2 1 4 0  
E6: 0 2 2 1 2 0   E7: 0 2 2 1 3 0


***************************************************************************************************************

***************************************************************************************************************

[ Tab from: http://www.guitartabs.cc/tabs/t/townshend_pete/mary_riff_crd.html ]
From: Litgo@aol.com
Date: Fri, 7 Jun 1996 16:43:31 -0400


Rough Boys
By Pete Townshend
>From Empty Glass, 1980

==============
transcribed by
litgo@aol.com
==============

Cadd9 x32033
G/B   x20033


[intro - let open D ring throughout]
  A   G   B   G         D  G  B   G x2  D [pedal]  
|-------------------||---------------||---------------------|
|-10--8---12--8-----||--7--8--12--8--||-7-------------------|
|-9---7---11--7-----||--7--7--11--7--||-7-------------------|
|-0-----------------||--0------------||-0-0-0-0-0-0-0-0-0---|
|-------------------||---------------||---------------------|
|-------------------||---------------||---------------------|


[these chords are ascending triads with open D bass]

| F#  Bb  E   Ab  |  Eb  G  F  Bb |
| D   D   Eb  F   |  G   A  B  C  |
| C   D   D   G   |  G   C  C  D  |

     I wanna see what I can find!
| D                         D  |


=============
litgo@aol.com


***************************************************************************************************************

***************************************************************************************************************

Comments