Towers Of London - Fuck It Up Chords & Tabs

 

Fuck It Up Chords & Tabs

Towers Of London Chords & Tabs

Version: 1 Type: Tab 0 ratings
1 star 2 stars 3 stars 4 stars 5 stars
comments

Fuck It Up Tab

-------------------------------------------------------------------------------
			     F*** IT UP - Towers Of London
-------------------------------------------------------------------------------
Tabbed by:Adam Halton
Email: ajhalton@hotmail.com

Tuning: Standard

This is the second single from new British punk band Towers Of London.
Hey. This is my second tab, it is the easy way to play this song, and it sounds
ok to me. it's the same all the way through apart from one break
where it is just the drums and vocals, and about three bridge-type things.
The only other thing that varies is the distortion.

[ Tab from: http://www.guitartabs.cc/tabs/t/towers_of_london/fuck_it_up_tab.html ]
INTRO/VERSE/CHORUS (The strumming pattern may not be 100% but it's not impossible to 
out.)
e|---------------------------------------------------------------------------|
B|---------------------------------------------------------------------------|
G|----------------4--5--7--------7-7-7-7-7----5--4---------------------------|
D|---5-5-5-5-5----4--5--7--------7-7-7-7-7----5--4--5------------------------|
A|---5-5-5-5-5----2--3--5--------5-5-5-5-5----3--2--5------------------------|
E|---3-3-3-3-3--------------------------------------3------------------------|

BRIGDE
e|---------------------------------------------------------------------------|
B|---------------------------------------------------------------------------|
G|---------------------------------------------------------------------------|
D|---7-7-7-7-7-7-7-7---5-5-5-5-}---------------------------------------------|
A|---7-7-7-7-7-7-7-7---5-5-5-5-}PLAY ALL THAT TWICE, THEN--------------------|
E|---5-5-5-5-5-5-5-5---3-3-3-3-}---------------------------------------------|

e|---------------------------------------------------------------------------|
B|---------------------------------------------------------------------------|
G|---4-4-4-4-4-4-4-4---1-1-1-1-}---------------------------------------------|
D|---4-4-4-4-4-4-4-4---2-2-2-2-}-THEN ALL THAT TWICE-------------------------|
A|---2-2-2-2-2-2-2-2---2-2-2-2-}---------------------------------------------|
E|---------------------------------------------------------------------------|


SONG ORDER

INTRO X2
CHORUS X2
VERSE X2
INTRO X2
VERSE X2
BRIDGE X1
CHORUS X2
VERSE X2
BRIDGE X1

THEN THE PART WITH JUST THE DRUMS & VOCALS

CHORUS X2
BRIDGE X1
CHORUS X2


Hope that was okay.
Comments