Tourniquet - Whitewashed Tomb Chords & Tabs

 

Whitewashed Tomb Chords & Tabs

Tourniquet Chords & Tabs

Version: 1 Type: Tab 0 ratings
1 star 2 stars 3 stars 4 stars 5 stars
comments

Whitewashed Tomb Tab

"Whitewashed Tomb"
From the album "Stop the Bleeding"
By Tourniquet
Music by Ted Kirkpatrick
copyright 1990 Intense Records



E||------------------------|---------------------|----------------------
B||------------------------|---------------------|------------------4---
G||*-----2---1-------------|-----2---1---------3-|----2---1---------3---
D||*-2-----3---2-2---2-3---|-2-----3---2-2---2-3-|-2----3---2-2---2-1---
A||--2-----------2---2-3---|-2-----------2---2-1-|-2----------2---2-----
E||--0-----------0---0-1---|-0-----------0---0---|-0----------0---0-----
         . . . .                 . . . .              . . . .

E-------------5p4------5p4------5------|--------------------------------
B-------4-5-6------5-6------5-6---4----|--------------------------------
G---3h4--------------------------------|-----2---1----------------------
D--------------------------------------|--2----3---2--2---2-3-----------
A--------------------------------------|--2-----------2---2-3-----------
E--------------------------------------|--0-----------0---0-1-----------
        . . .      . .      . .              . . . .

E-------------------------|-----------------------|---------------------
B-------------------------|-------------------4---|---------------------
G---------2---1---------3-|-----2---1---------3---|-4---3---5-----------
D-----2-----3---2-2---2-3-|-2-----3---2-2---2-1---|---5---4-3-5-5-/-9-\-
A-----2-----------2---2-1-|-2-----------2---2-----|-----------3-3-/-7-\-
E-----0-----------0---0---|-0-----------0---0-----|---------------------
          . . . .               . . . .

E-----------------------------|-----------------------------------------
B-----------------------------|-----------------------------------------
G-----------------2---1---1---|-----------------------------------------
D-----------------------2---2-|-3p2p0-3p2p0-5---7-----------------------
A-----------2-3-0-------------|-------------3---5---6---7---------------
E-----5p4-5-------------------|---------------------4---5---------------
          . . . .

E-------------------------------|--------------------------||
B-------------------------------|--------------------------||
G-------------------------------|-------------------------*||
D--------------------------3~~~-|-2-0---2-0-------2-------*||
A--------2-3---3----------------|-----3-----3-2-0-2--------||
E---4-5------0-1~~~-0h1~~~------|-----------------0--------||
    . .  . .                                      .

    1:37
E-||--------------------------------|-----------------------------------
B-||--------------------------------|-----------------------------------
G-||*-------------------------------|-----------------------------------
D-||*-2---2-2---2---2---2-2---2---2-|-2---2-2---2---2---2-2---2---2--2--
A-||--2---2-2---2---2---2-2---2---2-|-2---2-2---2---2---2-2---2---2--2--
E-||--0---0-0---0---0---0-0---0---0-|-0---0-0---0---0---0-0---0---0--0--
          . .           . .               . .           . .

E--------------------------------|------------------------------------||
B--------------------------------|------------------------------------||
G--------------------------------|-----------------------------------*||
D--3---3-3---3---3---3-3---3---3-|-3---3-3---3---3---3-3---3---3---3-*||
A--3---3-3---3---3---3-3---3---3-|-3---3-3---3---3---3-3---3---3---3--||
E--1---1-1---1---1---1-1---1---1-|-1---1-1---1---1---1-1---1---1---1--||
       . .           . .               . .           . .

E-------------------4-5-7-5-4h5p4------------
B---------------4-5---------------5-----a.h.-
G-------3-4-3h4-------------------------9^-9\
D---1/2--------------------------------------
A--------------------------------------------
E--------------------------------------------

                                                               too fast!
E------------------5-6-15-13-------|-----4-5---10-----8h10p8--..........
B--------------5-6-----------13----|---5--------------------------------
G-----4h5-4h5-------------------14-|-4----------------------------------
D-2h3------------------------------|------------------------------------
A----------------------------------|------------------------------------
E----------------------------------|------------------------------------


    2:18
E-----------------|---------------------------------|-------------------
B-----------------|---------------------------------|-------------------
G---4---7---6---3-|---------------------------------|-----4---0---------
D---x---x---x---x-|---------0-------------2-4-2-0---|---4---4---4-0-----
A---2---5---4---1-|-2h1-2-4---2-1-4---1-4---------4-|-2-------------4---
E-----------------|-----------------2---------------|-------------------
                        {p.m..........................................}

[ Tab from: http://www.guitartabs.cc/tabs/t/tourniquet/whitewashed_tomb_tab.html ]
E-------------------|-----------------|-----------------
B-------------------|-----------------|-----------------
G-------2-----------|-----0-----------|-----------------
D-----2---2-4-2-0---|---0---0-2-0-----|-----------------
A---0-------------4-|-------------3-1-|---------1---1-4-
E-------------------|-3---------------|-2\1-2-4---2-----
   {p.m..............................}

    rhthym/arpeggios during leads
E-||---------------------------------|-----------------|----------------
B-||---------------------------------|-----------------|----------------
G-||*--------------------------------|-----2-----------|-----0----------
D-||*------------------------2-------|---2---2-4-2-0---|---0---0-2-0----
A-||-------2-3-----2-----2-5---5-3-2-|-0-------------4-|-------------3-2
E-||-5-4-5-----5-4---0-4-------------|-----------------|-3--------------
    {p.m...............................................................}


E----------------------|------------------||
B----------------------|------------------||
G----------------------|-----------------*||
D-------3---0----------|-2\1-2-4---------*||
A-----0---3---3-0------|---------------2--||
E---1-------------3~~~-|---------1p0-4----||
   {p.m.........}


    2:54 - Combined the 2 guitar parts
E-----------------------------------------------------------------------
B-----------------------------------------------------------------------
G-----------------------------------------------------------------------
D---2-----------2~~~-----------3~~~--------------------------2~~~-------
A---2-----------------------------------------5~~~----------------------
E---0-0-0-1p0-0------0-0-1p0-0------0-0-1p0-0------0-0-1p0-0------0-0-1-
      . .     .      . .     .      . .     .      . .     .      . .


E-----------------------------------------------------------------------
B-----------------------------------------------------------------------
G-----------------------------------------------------------------------
D--------5~~~-----------4~~~--------------------------2~~~--------------
A--------------------------------------5~~~--------------------------2~~
E---p0-0------0-0-1p0-0------0-0-1p0-0------0-0-1p0-0------0-0-1p0-0----
       .      . .     .      . .     .      . .     .      . .     .

                                  3:10
E-----------------------------------------------------------------------
B-----------------------------------------------------------------------
G-----------------------------------------------------------------------
D------------2~~~-----------3~~~----------------------------------------
A------------------------------------------5~~~-----------2~~~----------
E--0-0-1p0-0------0-0-1p0-0------0-0-1p0-0------0-0-1p0-0------0-0-1p0-0
   . .     .      . .     .      . .     .      . .     .      . .     .


E-----------------------------------------------------------------------
B-----------------------------------------------------------------------
G-----------------------------------------------------------------------
D-4~~~--------------------------2~~~---------2~~~-----------3~~~--------
A---------------5~~~----------------------------------------------------
E----0-0-1p0-0------0-0-1p0-0------0-0-1p0-0------0-0-1p0-0------0-0-1p0
     . .     .      . .     .      . .     .      . .     .      . .


E----------------------------------------------------------------------0
B----------------------------------------------------------------------5
G----------------------------------------------------------------------4
D-------------------2~~~-----------4h5~~~----------4~~~----------------2
A----5~~~---------------------------------------------------------5~~~-2
E--0------0-0-1p0-0------0-0-1p0-0--------0-0-1p0-0-----0-0-1p0-0------0
   .      . .     .      . .     .        . .     .     . .     .

  3:26 - more arpeggios
E-----------------------------------|-----------------|-----------------
B-----------------------------------|-----5-----------|-----3-----------
G---------------------------4-2-----|---4---4-5-4-2-0-|---2---2-4--2-0-4
D-2-1-2-4-5-2-1-4---1-----------5-4-|-2---------------|-0---------------
A-----------------2-----2-----------|-----------------|-----------------
E---------------------2-------------|-----------------|-----------------


                Repeat with final lead     3:53
E-------------------|------------------||-------------------------------
B-------------------|------------------||-------------------------------
G-------5---2-0-----|-----------------*||-------------------------------
D-----5---5-----3-2-|-------------1-4-*||-2-1-2-4-5-4-2-1-2-4--5-4------
A---3---------------|-2-1-2-4-5-2------||-------------------------------
E-------------------|------------------||-------------------------------


                           4x
E--||----------------------||-----------------------------||
B--||----------------------||---------------------5-------||
G--||*--------------------*||---------------4-------------||
D--||*----2\1/2h4h5p4p----*||-2---2-1-4-5---------------2-||
A--||----------------------||---------------------------2-||
E--||----------------------||---------------------------0-||


www.tourniquet.net
Comments