Tourniquet - Pathogenic Ocular Dissonance Chords & Tabs

 

Pathogenic Ocular Dissonance Chords & Tabs

Tourniquet Chords & Tabs

Version: 1 Type: Tab 0 ratings
1 star 2 stars 3 stars 4 stars 5 stars
comments

Pathogenic Ocular Dissonance Tab

"Pathogenic Ocular Dissonance"
From the album "Pathogenic Ocular Dissonance"
By Tourniquet
Words and Music by Ted Kirkpatrick
copyright 1992 Intense Records



         Beginning lead, played with Rhythm 1
Eb--||--------------------------------------------------------------------
Bb--||--------------------------------------------------------------------
Gb--||*------------------------------9------------------------------------
Db--||*--10-p-9-p-8--9--10--9--8--9-----9--10--10-p-9-p-8--9--10--9-------
Ab--||--------------------------------------------------------------------
Eb--||--------------------------------------------------------------------


Eb------------------------------------------------------------------------
Bb------------------8-------------------------------------------/12-------
Gb--9---------8--9-----------9p8h9------9p8h9--11p9-----9p8h9--------9----
Db-----9--10-----------7-------------10---------------9-------------------
Ab------------------------------------------------------------------------
Eb------------------------------------------------------------------------


     1st Ending                  2nd Ending
Eb-----------------11-----------||------------------------------||--------
Bb---------------------11--12---||--13--12----------------------||--------
Gb--/11h12p11------------------*||----------11--14--12----------||--------
Db-------------13--------------*||----------------------13--14--||--------
Ab------------------------------||------------------------------||--------
Eb------------------------------||------------------------------||--------


    Rhythm 1
Eb-----------------------|------------------------------------------------
Bb-----------------------|------------------------------------------------
Gb-----------------------|-------------------------5----------------------
Db--2--------------------|--7----------------------5----------------------
Ab--2--------------------|--7----------------------3--3--3-----3--3--3----
Eb--0--0--0-----0--0--0--|--5--5--5-----5--5--5---------------------------
       .  .  3x .  .  .        .  .     .  .  .       .  .     .  .  .


Eb------------------------------------------------------------------------
Bb------------------------------------------------------------------------
Gb-------------------------8----------------------4-----------------------
Db--7----------------------8----------------------4-----------------------
Ab--7----------------------6--6--6-----6--6--6----2-h-3-p-2-p-0-----------
Eb--5--5--5-----5--5--5------------------------------------------3--2-----
       .  .     .  .  .       .  .     .  .  .                   .  .

Eb-----------------------|------------------------------------------------
Bb-----------------------|------------------------------------------------
Gb-----------------------|-------------------------5----------------------
Db--2--------------------|--7----------------------5----------------------
Ab--2--------------------|--7----------------------3--3--3-----3--3--3----
Eb--0--0--0-----0--0--0--|--5--5--5-----5--5--5---------------------------
       .  .  3x .  .  .        .  .     .  .  .       .  .     .  .  .


Eb--------------------------------------------------------------||--------
Bb--------------------------------------------------------------||--------
Gb--4-----------------------------------------------------------||--------
Db--4-----------------------5-----------------------2-----------||--------
Ab--2--2--2-----2--2--2-----5-----------------------2-----------||--------
Eb--------------------------3--3--3-----3--3--2-----0-----------||--------
       .  .     .  .  .        .  .     .  .  .

   Rhythm 2   (part 1 - 4x)        (part 2 - 4x)            play part 1 4x
Eb-----------------------------|------------------------------------------
Bb-----------------------------|------------------------------------------
Gb-----------------------------|------------------------------------------
Db-----2-----------4--/--7--\--|-----5--------5--/--9--\------------------
Ab-----2-----------4--/--7--\--|-----5--------5--/--9--\------------------
Eb--0--0-----0--0--2--/--5--\--|--3--3--3--3--3--/--7--\------------------
    .        .  .                 .     .  .

                          Rhythm 3
Eb---------------------|--------------------------------------------------
Bb---------------------|--------------------------------------------------
Gb--7-----9--10-----9--|--------------------------------------------------
Db--7-----9--10-----9--|--2-----------------------------------------------
Ab--5-----7--8------7--|--2-----------------------------------------------
Eb---------------------|--0-----0--0--0--0--3p0---------------------------
                                .  .  .  .

Eb-------------------------|----------------------------------------------
Bb-------------------------|----------------------------------------------
Gb-------------------------|----------------------------------------------
Db--2----------------------|----------------------------------------------
Ab--2----------------------|----------------------------------------------
Eb--0-----0--0--0--0--3h0--|--0h1--1--1--1--1--1--1-----------------------
          .  .  .  .               .  .  .  .  .  .

Eb------------------------------------------------------------------------
Bb------------------------------------------------------------------------
Gb------------------------------------------------------------------------
Db--3--/--6--6--6--6--\-----5--5--5---------------------------------------
Ab--3--/--6--6--6--6--\-----5--5--5---------------------------------------
Eb--1--/--4--4--4--4--\-----3--3--3---------------------------------------


        "Pathogenic....."  (very fast - 32nd notes)
Eb--||--------------------------------------------------------------------
Bb--||--------------------------------------------------------------------
Gb--||*-------------------------------------------------------------------
Db--||*-------------------------------------------------------------------
Ab--||--------------------------------------------------------------------
Eb--||---0--0--0--0--0--0--0--0--7--7--7--7--7--7--7--7-------------------


Eb------------------------------------------------------------------------
Bb------------------------------------------------------------------------
Gb------------------------------------------------------------------------
Db------------------------------------------------------------------------
Ab------------------------------------------------------------------------
Eb--6--6--6--6--6--6--6--6--3--3--3--3--3--3--3--3------------------------


Eb------------------------------------------------------------------------
Bb------------------------------------------------------------------------
Gb------------------------------------------------------------------------
Db------------------------------------------------------------------------
Ab------------------------------------------------------------------------
Eb--0--0--0--0--0--0--0--0--7--7--7--7--7--7--7--7------------------------


Eb---------------------------------------------------||-------------------
Bb---------------------------------------------------||-------------------
Gb--------------------------------------------------*||-------------------
Db--------------------------------------------------*||-------------------
Ab---------------------------------------------------||-------------------
Eb--8--8--8--8--8--8--8--8--6--6--6--6--6--6--6--6---||-------------------

[ Tab from: http://www.guitartabs.cc/tabs/t/tourniquet/pathogenic_ocular_dissonance_tab.html ]
                                 Bass Interlude
Eb------------------------------------------------------------------------
Bb------------------------------------------------------------------------
Gb--9--8------------------------------------------------------------------
Db--------9--7------------------------------------------------------------
Ab--------------10--9--7--------------------------------------------------
Eb------------------------------------------------------------------------


       (2:22)  Tune 6th string down one whole step (Drop D)
Eb--||--------------------------------------------------------------------
Bb--||--------------------------------------------------------------------
Gb--||*-------------------------------------------------------------------
Db--||*-------------------------------------------------------------------
Ab--||--------------------------------------------------------------------
Eb--||---0---7~~~--6-h-7--6~~~--3~~~--6----0----7~~~--8-h-10--8~~~--2~~~--


        1st     2nd         "When red is green and green is gray..."
Eb----|-----|---------||--------------------------------------------------
Bb----|-----|---------||--------------------------------------------------
Gb----|-----|--------*||--------------------------------------------------
Db----|-----|--------*||--------------------------------------------------
Ab----|-----|---------||---------------------------3~~~-------------------
Eb----|--7--|--1--1---||--0-----3~~~--2-h-3--2~~~--------1--1-------------


Eb------------------------------------------------------------------------
Bb------------------------------------------------------------------------
Gb------------------------------------------------------------------------
Db------------------------------------------------------------------------
Ab-----------------------------1~~~---------------------------------------
Eb--0-----3~~~--2-h-3--2~~~-----------------------------------------------


      Middle lead - similar to beginning but slower
Eb-||--------------------------------------------------------------------
Bb-||----------------------------------6---------------------------------
Gb-||*---------------------------7---------------------------7------6--7-
Db-||*-8-p-7-p-6--7--8--7--6--7-----7----8-p-7-p-6--7--8--7-----7--8-----
Ab-||--------------------------------------------------------------------
Eb-||--------------------------------------------------------------------


Eb------------------------------------------------------------------------
Bb--6---------------------------------------------10----------------------
Gb--------------7--6h7-----7p6h7--9p7-----7--6h7------7-------------------
Db-----5~~~-------------8--------------7----------------------------------
Ab------------------------------------------------------------------------
Eb------------------------------------------------------------------------


    1st Ending                    2nd ending
Eb---------------9------------||------------------------||----------------
Bb------------------9--10~~~\-||/11--10-----------------||----------------
Gb--9-h10p9------------------*||--------9h12-10---------||----------------
Db-----------11--------------*||----------------11--12--||----------------
Ab----------------------------||------------------------||----------------
Eb----------------------------||------------------------||----------------

    Tune back up, play Rythym 1 (3:21)
Eb------------------------------------------------------------------------
Bb------------------------------------------------------------------------
Gb------------------------------------------------------------------------
Db------------------------------------------------------------------------
Ab------------------------------------------------------------------------
Eb------------------------------------------------------------------------


Eb-----------------------------|------------------------------------------
Bb-----------------------------|------------------------------------------
Gb-----------------------------|------------------------------------------
Db-----2-----------4--/--7--\--|-----2-----------4--/--7--\---------------
Ab-----2-----------4--/--7--\--|-----2-----------4--/--7--\---------------
Eb--0--0-----0--0--2--/--5--\--|--0--0-----0--0--2--/--5--\---------------
    .        .  .                 .        .  .

Eb------------------------------------------------------------------------
Bb------------------------------------------------------------------------
Gb------------------------------------------------------------------------
Db------------------------------------------------------------------------
Ab------------------------------------------------------------------------
Eb--0--0--0--0--0--0--0--0--7--7--7--7--7--7--7--7------------------------


Eb------------------------------------------------------------------------
Bb------------------------------------------------------------------------
Gb------------------------------------------------------------------------
Db------------------------------------------------------------------------
Ab------------------------------------------------------------------------
Eb--6--6--6--6--6--6--6--6--3--3--3--3--3--3--3--3------------------------


Eb-----------------------------|------------------------------------------
Bb-----------------------------|------------------------------------------
Gb-----------------------------|------------------------------------------
Db-----2-----------4--/--7--\--|-----2-----------4--/--7--\---------------
Ab-----2-----------4--/--7--\--|-----2-----------4--/--7--\---------------
Eb--0--0-----0--0--2--/--5--\--|--0--0-----0--0--2--/--5--\---------------
    .        .  .                 .        .  .

Eb------------------------------------------------------------------------
Bb------------------------------------------------------------------------
Gb------------------------------------------------------------------------
Db------------------------------------------------------------------------
Ab------------------------------------------------------------------------
Eb--0--0--0--0--0--0--0--0--7--7--7--7--7--7--7--7------------------------


Eb------------------------------------------------------------------------
Bb------------------------------------------------------------------------
Gb------------------------------------------------------------------------
Db------------------------------------------------------------------------
Ab------------------------------------------------------------------------
Eb--8--8--8--8--8--8--8--8--6--6--6--6--6--6--6--6------------------------


Eb-----------------------------|------------------------------------------
Bb-----------------------------|------------------------------------------
Gb-----------------------------|------------------------------------------
Db-----2-----------4--/--7--\--|-----2-----------4--/--7--\---------------
Ab-----2-----------4--/--7--\--|-----2-----------4--/--7--\---------------
Eb--0--0-----0--0--2--/--5--\--|--0--0-----0--0--2--/--5--\---------------


Eb------------------------------------------------------------------------
Bb------------------------------------------------------------------------
Gb------------------------------------------------------------------------
Db--2-----2--2--2--2------------------------------------------------------
Ab--2-----2--2--2--2------------------------------------------------------
Eb--0-----0--0--0--0--3--0--0--0-----0--0---------------------------------
    .     .  .  .  .  .  .  .  .     .  .


Eb-------------------------------------||---------------------------------
Bb-------------------------------------||---------------------------------
Gb-----------------------8--\----------||---------------------------------
Db-----------------------8--\----2--2--||---------------------------------
Ab-----------------------6--\----2--2--||---------------------------------
Eb--2--0--0--0-----0--0----------0--0--||---------------------------------
Comments