Tourniquet - Microscopic View Of A Telescopic Realm Chords & Tabs

 

Microscopic View Of A Telescopic Realm Chords & Tabs

Tourniquet Chords & Tabs

Version: 1 Type: Tab 0 ratings
1 star 2 stars 3 stars 4 stars 5 stars
comments

Microscopic View Of A Telescopic Realm Tab

Author/Artist: Tourniquet
Title: Microscopic View of a Telescopic Realm
Album: Microscopic View of a Telescopic Realm

B ||-----------------------|
G ||-----------------------|
D ||-----------------------|
A ||--7--------------------|     All 12x
E ||--5-----8-----5-----7--|
B ||--------6-----3-----5--|

[ Tab from: http://www.guitartabs.cc/tabs/t/tourniquet/microscopic_view_of_a_telescopic_realm_tab.html ]
                    x2                 x2                x2
B ||-----------------|------------------|-----------------||
G ||---------9-------|---------10-------|---------7-------||
D ||--7-9-10---10-9--|--7-9-10----10-9--|--7-9-10---10-9--||
A ||-----------------|------------------|-----------------||
E ||-----------------|------------------|-----------------||
B ||-----------------|------------------|-----------------||

                   x2
B ||----------------||
G ||-------4-5-7-9--||
D ||--6-7-----------||
Comments