Tourniquet - Impending Embolism Chords & Tabs

 

Impending Embolism Chords & Tabs

Tourniquet Chords & Tabs

Version: 2 Type: Tab 0 ratings
1 star 2 stars 3 stars 4 stars 5 stars
comments

Impending Embolism Tab

#----------------------------------PLEASE NOTE---------------------------------#
#This file is the author's own work and represents their interpretation of the #
#song. You may only use this file for private study, scholarship, or research. #
#------------------------------------------------------------------------------##
#

                     TOURNIQUET
            SONG: "Impending Embolism"
           ALBUM: "Pathogenic Ocular Dissonance"
           words and music: Ted Kirkpatrick
           copyright: 1992 Broken Songs (ASCAP)


         TABBED BY:  KEVIN USHER
                     usher@gaul.csd.uwo.ca


NOTE: for gtr2 - all notes in part 1 are muted.


PART 1
E---------------9---------------9---------------9---------------9--------|
B-------6---------------6---------------6---------------6--------  gtr 1-|
G------------------------------------------------------------------------|
D---8-------8-------8-------8-------8-------8-------8-------8------------|
A-6---6---6---6---6---6---6---6---6---6---6---6---6---6---6---6--  gtr 2-|
e------------------------------------------------------------------------|

E------------------------------------------------------------------------|
B---------------7---------------7---------------7---------------7  gtr 1-|
G-------3---------------3---------------3---------------3----------------|
D------------------------------------------------------------------------|
A---9-------9-------9-------9-------9-------9-------9-------9----  gtr 2-|
e-7---7---7---7---7---7---7---7---7---7---7---7---7---7---7---7----------|

E---------------9---------------9---------------8---------------8--------|
B-------6---------------6---------------5---------------5--------  gtr 1-|
G------------------------------------------------------------------------|
D---8-------8-------8-------8-------7-------7-------7-------7------------|
A-6---6---6---6---6---6---6---6---5---5---5---5---5---5---5---5--  gtr 2-|
e------------------------------------------------------------------------|
[ Tab from: http://www.guitartabs.cc/tabs/t/tourniquet/impending_embolism_tab_ver_2.html ]
E---------------8---------------8---------------9---------------9--------|
B-------5---------------5---------------6---------------6--------  gtr 1-|
G------------------------------------------------------------------------|
D---7-------7-------7-------7-------8-------8-------8-------8------------|
A-5---5---5---5---5---5---5---5---6---6---6---6---6---6---6---6--  gtr 2-|
e------------------------------------------------------------------------|

E---------------9--------------------------------------------------------|
B-------6-----------------------7---------------7---------------7  gtr 1-|
G-----------------------3---------------3---------------3----------------|
D---8-------8------------------------------------------------------------|
A-6---6---6---6-----9-------9-------9-------9-------9-------9----  gtr 2-|
e-----------------7---7---7---7---7---7---7---7---7---7---7---7----------|

E-------------------------------9---------------9----------------|
B---------------7-------6---------------6------------------------|  gtr 1
G-------3--------------------------------------------------------|
D-------------------8-------8-------8-------8--------------------|
A---9-------9-----6---6---6---6---6---6---6---6------------------|  gtr 2
e-7---7---7---7--------------------------------------------------|


PART 2

E-----------------|----------------|----------------|------------------|
B-----------------|----------------|----------------|------------------|
G-----------------|----------------|----------------|------------------|
D-----------------|----8-----------|----------------|------------------|
A-----6-----8-9---|6---------------|----6-----8-9---|6---8p5-----------|
e-6---------------|--------7---6---|6---------------|----------7---6---|


E-----------------|----------------|----------------|----------------|
B-----------------|----------------|----------------|----------------|
G-----------------|----8---6-------|6---------------|/8--7-----------|
D-----------------|------------9---|----8-----9-8---|--------9---8---|
A-----6-----8-9---|6---------------|----------------|----------------|
e-6---------------|----------------|----------------|----------------|


E-----------------|----------------|----------------|----------------|
B-----------------|----------------|----------------|9---7---6-------|
G-----------------|----------------|----7-------7---|------------8---|
D-----------------|----6-----8-9---|9-------8-------|----------------|
A-----6-----8-9---|6---------------|----------------|----------------|
e-6---------------|----------------|----------------|----------------|


repeat PART 2.
Comments