Tourniquet - Claustrospelunker Chords & Tabs

 

Claustrospelunker Chords & Tabs

Tourniquet Chords & Tabs

Version: 1 Type: Tab 0 ratings
1 star 2 stars 3 stars 4 stars 5 stars
comments

Claustrospelunker Tab

   
#----------------------------------PLEASE NOTE---------------------------------#
#This file is the author's own work and represents their interpretation of the #
#song. You may only use this file for private study, scholarship, or research. #
#------------------------------------------------------------------------------##

                                CLAUSTROSPELUNKER
                            As recorded by Tourniquet
                      (From the 1997 Album CRAWL TO CHINA)

Words and Music by Ted Kirkpatrick
Transcribed by Dave Iverson

Hello everyone, 
        Claustrospelunker is one of my favorite upbeat tunes from Tourniquet 
thats was previously not available. So I sat down, listened to it and wrote it
out. It has a very jazzy bass intro (soon to be added in tab) The guitar is kinda 
fast and all over the neck but follows the A major scale pretty consistently. 
With a little practice it comes through really smooth and is so much fun to play. 
Enjoy

A few performance notes and explanation:

*Down tuned a half step* D#, G#, C#, F#, A#, D#*

*I've included the chords under the tabbed area as well.

*Rhythm is not indicated in tablature*

For the Bridge, I have not completely filled out every note as is on the album 
for the sake of time. Its all  F minor scale and is relatively easy to follow. 
A little improvisation and correct phrasing will make it sound great :)

Please send any comments, complaints, or requests to SubtleSustain@msn.com


Gtr I (D# G# C# F# A# D#) - 'Down tuned 1 half step'

**If the tab  diagram is slanted be sure to set your font to "Courier New"**

  Gtr I Chorus Riff
|---------------------------------|--------------------|-----------------|
|---------------------------------|--------------------|-----------------|
|---------------------------------|--------------------|-----------------|
|------------------7-6-4-9--------|------------------7-|-6-4-9-----------|
|------------2-3-4-5-4-2-7-9-11-7-|------------2-3-4-5-|-4-2-7-9-11-7----|
|-5b7r5-5p-0-0-1-2---------7--9-5-|-5b7r5-5p-0-0-1-2---|-------7--9-5----|


[ Tab from: http://www.guitartabs.cc/tabs/t/tourniquet/claustrospelunker_tab.html ]
Basic Verse Chord Progression: F, C#, G#, D5#, C, C#, G#, D5#
                      
                      F         C#          G#
                      (Fig. 2) 
|-------------------|-----------------------------|
|-------------------|-----------------------------|
|-------------------|------------7----------------|
|-------------------|-4----------7-----------7----|
|------------2-3-4--|-4----------5-----------7----|
|-5b7r5-5p-0-0-1-2--|-2----------------------5----|

  D5#      C       Bb  C C#    G#   D5# F G
|---------------------------------------------|
|---------------------------------------------|
|-9--------6-------4---6-7----------9---------|
|-9--------6-------4---6-7-----7----9---------|
|-7--------4-------2---4-5-----7----7--4-6----|
|-0----------------------------5----0--2-4----|


Chorus Riff

Verse 2 (Fig. 2)


Bridge:      (Basically follows F minor scale listen to song for phrasing)

|---------------------------------------------------------|
|---------------------------------------------------------|
|---------------------------------------10-10h11----------|
|-11---------11-12-11--------11------------------12-11----|
|----9-11-12----------12-9------9-11-12-------------------|
|---------------------------------------------------------|


Chorus Riff:

|--------------------|-----------------|
|--------------------|-----------------|
|--------------------|-----------------|
|------------------7-|-6-4-9-----------|
|------------2-3-4-5-|-4-2-7-9-11-7----|
|-5b7r5-5p-0-0-1-2---|-------7--9-5----|

Ending Chords:

|------------------------------------------------------------------------|
|------------------------------------------------------------------------|
|------------------------------------------------------------------------|
|-11-11-11---11-11-11---11-11-11---11-11-11--7-7-7--7-7-7--9-9-9--9-9-9--|
|--9--9--9----9--9--9----9--9--9----9--9--9--5-5-5--5-5-5--7-7-7--7-7-7--|
|------------------------------------------------------------------------|


Thats it
Keep playing those awesome Tourniquet tunes.
Please send any comments, complaints, or requests to SubtleSustain@msn.com


Tablature Legend
----------------
 h   - hammer-on
 p   - pull-off
 b   - bend
 pb  - pre-bend
 r   - bend release (if no number after the r, then release immediately)
 /\  - slide into or out of (from/to "nowhere")


Misc Legend
-----------
 |  - bar
||  - double bar
||o - repeat start
o|| - repeat end
*|  - double bar (ending)
 :  - bar (freetime)
 $  - Segno
 &  - Coda
Tempo markers -  = BPM(8/16=s8/s16), where s8 = swing 8ths, s16 = swing 16ths


***************************************************************************************
* Generated using Power Tab Editor by Brad Larsen - http://powertab.guitarnetwork.org *
***************************************************************************************
Comments