Tourniquet - Acid Head Chords & Tabs

 

Acid Head Chords & Tabs

Tourniquet Chords & Tabs

Version: 2 Type: Tab 0 ratings
1 star 2 stars 3 stars 4 stars 5 stars
comments

Acid Head Tab

   
#----------------------------------PLEASE NOTE---------------------------------#
#This file is the author's own work and represents their interpretation of the #
#song. You may only use this file for private study, scholarship, or research. #
#------------------------------------------------------------------------------##
#

   		     TOURNIQUET

	  	  Song: "Acid Head"
	From the album: "Vanishing Lessons"
	  Music/Lyrics: Ted Kirkpatrick
	     copyright: 1994 Broken Songs / Biomedical Music  (ASCAP)

		(NOTE): Tune down 1/2 tone

	     Tabbed by:  KEVIN USHER
			 usher@gaul.csd.uwo.ca

		 m - muted chord
		 / - slide
		 p - pull off
   		 h - hammer on


RHYTHM 1)

-------------------------------------------------------|---------------|
-------h-3----------------h-3----------------h-3-------|--4------1-----|
-----3-4-------5--------3-4-------5--------3-4-------5-|--4------1-----|
-2-2-------2-2------2-2-------2-2------2-2-------2-2---|--4------1-----|
-2-2-------2-2------2-2-------2-2------2-2-------2-2---|---------------|
-0-0-------0-0------0-0-------0-0------0-0-------0-0---|---------------|


RIFF A)

--------------------------------------------------------|
-8---8-------10---8---------8---8-------10---8----------|
---9---9-7------9---9-7-------9---9-7------9---9-7------|
-----------9------------9-------------9------------9----|
--------------------------------------------------------|
--------------------------------------------------------|


RIFF B)

-----------------------|
8--8--------7--7-------|   Gtr 1
-------9--9--------8---|
-5--5--------4--4------|
-------7--7--------6---|   Gtr 2
-----------------------|


RHYTHM 2)

------------------------------------|
------------------------------------|
-----m-------m---------m-------m----|
-2-m-2--2-m--2-2---2-m-2--2-m--2-2--|
-2-m-2--2-m--2-2---2-m-2--2-m--2-2--|
-0-m-0--0-m--0-0---0-m-0--0-m--0-0--|


------------------------------------|
------------------------------------|
-----m-------m---------m------------|
-2-m-2--2-m--2-2---5-m-5--5\4-4-----|
-2-m-2--2-m--2-2---3-m-3--3-2-2--5--|
-0-m-0--0-m--0-0-----------------3--|

[ Tab from: http://www.guitartabs.cc/tabs/t/tourniquet/acid_head_tab_ver_2.html ]
RHYTHM 3)       ( 3   - indicates triplet )
                 / \
----------------------------------------------------------------|
--3--3--3--3----------------------------3--3-----------3--3-----|
-/-\/-\/-\/-\--------------------------/-\/-\---------/-\/-\----|
-022222522222------------3--3----5-5-5-444444---5-5-5-444444----|
---------------3--2-----/-\/-\---3-3-3-222222---3-3-3-222222----|
---------------------3--000000----------------------------------|


RIFF C)

--------------------------------------------------|
---------5----------------------------------------|
---------4----------------------------------------|
-2-------2---------2-------p----5-----5-4---------|
-2---------------2---5-3-5323---3---------7-6-7---|
-0----------------------------------3-------------|

--------------------------------------------------|
--------------------------------------------------|
--------------------------------------------------|
-2-----2-------p---5----------------2-------------|
-2---2---5-3-5323--3-----5-3-2-3-2--2-------------|
-0---------------------5------------0-------------|


RIFF D)

--------------------------------------------------|
--------------------------------------------------|
--------------------------------------4-2---------|
-------------------5-4--------------5-----5-4-5---|
-----------------7-----7-6-7----------------------|
--------------------------------------------------|

--------------------------------------------------|
--------------------------------------------------|
--------------------------------------------------|
-------5-4-------------4-7-5---5------------------|
-----7-----7-6-7-------------7---7----------------|
--------------------------------------------------|


RIFF E)

----------------------------------------------------|
----------------------------------------------------|
----------------------------------------------------|
---------------/5--4-2----------------2-----------1-|
---3-2---------------------1-2-3--------1-2-3-------|
-0-----0-2-3-0----------00-------0--0---------0-0---|


RIFF F)

-----------------------------------------------------|
---------------------------------------7\------------|
--------------------------------------------------7\-|
---------------/9--7---------------------------------|
---------------------10------------------------------|
-----------------------------------------------------|

SONG ORDER

Drum Intro

RHYTHM 1) x 2

RHYTHM 1) x 2 (gtr 1) --  RIFF A) (gtr 2)

RIFF B)

RHYTHM 2) x 4

RHYTHM 3) x 2

RIFF B)

RHYTHM 2) x 3

RHYTHM 3) x 4

RIFF B)

RIFF C) x 2  (gtr 1)  --  RIFF D) x 1  (gtr 2)

RIFF E) x 5  (gtr 1)  --  RIFF F) x 5  (gtr 2)

RIFF B

Ding - Triangle

RHYTHM 2) x 2

RHYTHM 3) x 4

RHYTHM 2)    (gtr 1)  --  RIFF A)   (gtr 2)
Comments