Touriste - What Are We Chords & Tabs

 

What Are We Chords & Tabs

Touriste Chords & Tabs

Version: 1 Type: Bass Tab

What Are We Bass Tab

   
-------------------------------------------------------------------------------
			     What Are We - Touriste
-------------------------------------------------------------------------------

Tabbed By : 


Tuning: Standard

Intro

G|---------------------------------------------------------------------------|
D|---------------------------------------------------------------------------|
A|-2-2-2-2-2-2-2-2-----------------------------------------------------------|
E|-----------------4-4-4-4-4-4-4-4-2-2-2-2-2-2-2-2-0-0-0-0-0-0-0-0-----------|

Verse 1

G|---------------------------------------------------------------------------|
D|---------------------------------------------------------------------------|
A|-2-------------------------------------------------------------------------|
E|-----------------4-4-------------2-2-------------0-0-----------------------|x2

Chorus 

G|---------------------------------------------------------------------------|
D|---------------------------------------------------------------------------|
A|-------------------------------------------------7---6---7---6-------------|
E|-4-4-4-4-4-4-4-4-2-2-2-2-2-2-2-2-0-0-0-0-0-0-0-0---7---7---7---7-----------|

G|---------------------------------------------------------------------------|
D|---------------------------------------------------------------------------|
A|---------------------------------------------------------------------------|
E|-4-4-4-4-4-4-4-4-2-2-2-2-2-2-2-2-0-0-0-0-0-0-0-0-0-0-0-0-0-0-0-0-----------|

G|---------------------------------------------------------------------------|
D|---------------------------------------------------------------------------|
A|-2-2-2-2-2-2-2-2-----------------------------------------------------------|
E|-----------------4-4-4-4-4-4-4-4-2-2-2-2-2-2-2-2-0-0-0-0-0-0-0-0-----------|

Verse 2

G|---------------------------------------------------------------------------|
D|-------------------------------------------------------13h14p13------------|
A|---------------------------------------------------------------14-\--------|
E|---------------------------------------------------------------------------|

G|---------------------------------------------------------------------------|
D|---------------------------------------------------------------------------|
A|-2-------------4---------------2---------------4---------------------------|
E|-----------------4---------------2---------------0-------------------------|

Chorus 2
[ Tab from: http://www.guitartabs.cc/tabs/t/touriste/what_are_we_btab.html ]
G|---------------------------------------------------------------------------|
D|---------------------------------------------------------------------------|
A|-------------------------------------------------7---6---7---6-------------|
E|-4-4-4-4-4-4-4-4-2-2-2-2-2-2-2-2-0-0-0-0-0-0-0-0---7---7---7---7-----------|

G|---------------------------------------------------------------------------|
D|---------------------------------------------------------------------------|
A|---------------------------------------------------------------------------|
E|-4-4-4-4-4-4-4-4-2-2-2-2-2-2-2-2-0-0-0-0-0-0-0-0-0-0-0-0-0-0-0-0-----------|

G|---------------------------------------------------------------------------|
D|---------------------------------------------------------------------------|
A|-2-2-2-2-2-2-2-2-----------------------------------------------------------|
E|-----------------4-4-4-4-4-4-4-4-2-2-2-2-2-2-2-2-0-0-0-0-0-0-0-0-----------|

G|---------------------------------------------------------------------------|
D|---------------------------------------------------------------------------|
A|-2-2-2-2-2-2-2-2-----------------------------------------------------------|
E|-----------------4-4-4-4-4-4-4-4-2-2-2-2-2-2-2-2-0-0-0-0-0-0-0-0-----------|

Verse 3

G|---------------------------------------------------------------------------|
D|---------------------------------------------------------------------------|
A|-2-------------4---------------2---------------4---------------------------|
E|-----------------4---------------2---------------0-------------------------| x2

Chorus 3

G|---------------------------------------------------------------------------|
D|---------------------------------------------------------------------------|
A|-------------------------------------------------7---6---7---6-------------|
E|-4-4-4-4-4-4-4-4-2-2-2-2-2-2-2-2-0-0-0-0-0-0-0-0---7---7---7---7-----------|

G|---------------------------------------------------------------------------|
D|---------------------------------------------------------------------------|
A|---------------------------------------------------------------------------|
E|-4-4-4-4-4-4-4-4-2-2-2-2-2-2-2-2-0-0-0-0-0-0-0-0-0-0-0-0-0-0-0-0-----------|


G|---------------------------------------------------------------------------|
D|---------------------------------------------------------------------------|
A|-------------------------4-4-2-2-------------------------------------------|
E|-4-4-4-4-6-6-7-7-2-2-2-2---------0---7-0----0-2---0---7-0----0-2-----------|x2

Outro

G|---------------------------------------------------------------------------|
D|---------------------------------------------------------------------------|
A|-2-------------4---------------2---------------4/7-------------------------|
E|-----------------4---------------2---------------0-------------------------|


| /  slide up
| \  slide down
| h  hammer-on
| p  pull-off
| ~  vibrato
| +  harmonic
| x  Mute note
===============================================================================

official Touriste website : www.touriste.co.uk