Toto - Taint Your World Chords & Tabs

 

Taint Your World Chords & Tabs

Toto Chords & Tabs

Version: 1 Type: Tab

Taint Your World Tab

/--------------------------------------------------------|
/--------------------------------------------------------|
/------------------5-------------------------------------|
/-------5-7---4-5---------4-5-7-------------------------|
/-----0---0-0-------0-2-3-------0-(0)-------------------|
/--------------------------------------------------------|
[ Tab from: http://www.guitartabs.cc/tabs/t/toto/taint_your_world_tab.html ]
/--------------------------------------------------------|
/--------------------------------------------------------|
/------------------5---------------2-(2)-----------------|
/-------5-7---4-5-----------------2-(2)-----------------|
/-----0---0-0-------0-2-3-2h3p2---0-(0)-----------------|
/--------------------------------3-----------------------|

thats about it its from their new album, i just love it!
its not that hard to play but the speed is the thing to practice