Toto - Hole The Line Chords & Tabs

 

Hole The Line Chords & Tabs

Toto Chords & Tabs

Version: 1 Type: Bass Tab 0 ratings
1 star 2 stars 3 stars 4 stars 5 stars
comments

Hole The Line Bass Tab

   
 
Song title's: Hold the Line
Artist: Toto
Album: Toto
Bass performance by: Dave Hungate

Intro
G|-----------------------------------------------------------|
D|---4--------------------4----------------------------------|
A|-------4--5--5--7-----------4--5--5--7-----7---4---3---2---|
E|-----------------------------------------------------------|

   Riff A (X2)
G|-----------------------------------------------------------|
D|---------------------------4-------------4-----------------|
A|---2---3---4-------4---7---------4---7---------4---3---2---|
E|-----------------------------------------------------------|

   Riff B (X2)
G|-----------------------------------------------------------|
D|-----------------------------------------------------------|
A|---2---3---4-------2---4---5-----4---5---7-----4---3---2---|
E|-----------------------------------------------------------|

   Bridge
G|---------------------------------------------------|
D|---------------------------------------------------|
A|---2---3---4-------5-5-5-5-5-5---7-7-7-7-7-7-4-7---|
E|---------------------------------------------------|

   Chorus
G|--------------------------------------------------------------------------------|
D|---4------------------4----------------------4------------------4---------------|
A|-------4--5--5--7--------4--5--5--7----4--7-----4--5--5--7---------4--5--5--7---|
E|--------------------------------------------------------------------------------|
[ Tab from: http://www.guitartabs.cc/tabs/t/toto/hole_the_line_btab.html ]
G|-------------------|
D|-------------------|
A|---7---4---3---2---|
E|-------------------|


G|----------------|----------------|------------|------------|
D|----------------|----------------|------------|------------|
A|---Riff-A(X2)---|---Riff-B(X2)---|---Bridge---|---Chorus---|
E|----------------|----------------|------------|------------|

   "Luke" guitar solo
G|-------------|-------------------------------------------------------|
D|-------------|---4-4-4-4-4-4-----------------------------------------|
A|---Chorus----|----------------4--5--5--7-7-7-7---4h5h7--4h5h7--4h5---|
E|-------------|-------------------------------------------------------|


G|---------------------------------------------------|
D|---4-4-4-4-4-4-------------------------------------|
A|----------------4--5--5--7-7-7-7-7-7-7-7-7-7-7-7---|
E|---------------------------------------------------|


G|---------------------------------------------------|
D|---4-4-4-4-4-4-------------------------------------|
A|----------------4--5--5--7-7-7-7-7-7-7-7-7-7-7-7---|
E|---------------------------------------------------|


G|---------------------------------------------------|
D|---4-4-4-4-4-4------------------------4------------|
A|----------------4--5--5--7-7-7-7-7-7-----4--3--2---|
E|---------------------------------------------------|


G|-----------|------------|----------------------------|
D|-----------|------------|----------------------------|
A|---Verse---|---Bridge---|---Chorus-(until-the-end)---|
E|-----------|------------|----------------------------|

got any questions e-mail me at chevyman_jr@yahoo.com...ENJOY!!!!!
Comments