Toto - Hold The Line Chords & Tabs

 

Hold The Line Chords & Tabs

Toto Chords & Tabs

Version: 1 Type: Tab 2 ratings
1 star 2 stars 3 stars 4 stars 5 stars
comments

Hold The Line Tab

ToTo-Hold The Line.

TAB:
Main Riff+Intro

e--------------------------------------------------------------------------------------
b--------------------------------------------------------------------------------------
g--------------------------------------------------------------------------------------
d----11--/---7--7-7---9-------11-7-7-6------------------------------------------------
a-----9--/--- 4--5-5---7--------9--6-5-4------------------------------------------------
e--------------------------------------------------------------------------------------
		Play Twice.
[ Tab from: http://www.guitartabs.cc/tabs/t/toto/hold_the_line_tab.html ]
Vers: 1st part
e--------------------------------------------------------------------------------------
b--------------------------------------------------------------------------------------
g--------------------------------------------------------------------------------------
d---------------34---34---------------------34---34-------------------------------
a---234-----4-----4---432-----234----4-----4----432-----------------------
e--------------------------------------------------------------------------------------
Palm mute.


Second part:
e--------------------------------------------------------------------------------------
b--------------------------------------------------------------------------------------
g--------------------------------------------------------------------------------------
d--------------------------------------------------------------------------------------
a---224---445---557-432-------------------------------------------------------
e--------------------------------------------------------------------------------------
Play 3times
Comments