Toto - Hold The Line Chords & Tabs

 

Hold The Line Chords & Tabs

Toto Chords & Tabs

Version: 4 Type: Bass Tab

Hold The Line Bass Tab



G|-------------|-------------|-------------|---------------|
D|-4------0--0-|-2-----------|-4------0--0-|-2-----2-------|
A|-----4-------|-------------|-----4-------|---------4--3--|
E|-------------|-------------|-------------|---------------|


G|---------------|-------------------|---------------|-------------------|
D|-------------2-|-4------2--4-------|-------------2-|-4------2--4-------|
A|-2--2-3-4--4---|------4------4-3-2-|-2--2-3-4--4---|------4------4-3-2-|
E|---------------|-------------------|---------------|-------------------|

[ Tab from: http://www.guitartabs.cc/tabs/t/toto/hold_the_line_btab_ver_4.html ]
G|---------------|--------------|---------------|--------------|
D|---------------|-0--0-0-2-----|---------------|-0--0-0-2-----|
A|-2--2-2-4--4-4-|----------4-3-|-2--2-2-4--4-4-|----------4-3-|
E|---------------|--------------|---------------|--------------|


G|---------------|----------------|
D|---------------|-0000002222---2-|
A|-2--2-2-4--4-4-|------------4---|
E|---------------|----------------|


G|---------------|x3|------------|--------|
D|-4/----0-0-2---|x3|-4/---0-0-2-|-2------|
A|-----4---------|x3|----4-------|---4-3--|
E|---------------|x3|------------|--------|

Play out through the song
BUT. There is a change at solo.
At the solo you play:
G|------------|
D|-4----0-0-2-|
A|----4-------|
E|------------|

But somewhere you start playing this instead 
(you should be able to hear when):

G|--------------|--------------|
D|-444444--0000-|-222222222222-|
A|-------44-----|--------------|
E|--------------|--------------|

just listen to the song and find out when you play the solo part !!

Good Luck !