Toten Hosen - Er Denkt, Sie Denkt Chords & Tabs

 

Er Denkt, Sie Denkt Chords & Tabs

Toten Hosen Chords & Tabs

Version: 1 Type: Tab 0 ratings
1 star 2 stars 3 stars 4 stars 5 stars
comments

Er Denkt, Sie Denkt Tab

   
#----------------------------------PLEASE NOTE--------------------------------#
#This file is the author's own work and represents their interpretation of the#
#song. You may only use this file for private study, scholarship, or research.#
#-----------------------------------------------------------------------------#

Date: Sun, 29 Mar 1998 17:05:26 +0200
From: Oliver Braun 
Subject: TAB: Er denkt, sie denkt - Toten Hosen

Er denkt, sie denkt ... (DIE TOTEN HOSEN )


   A  C#m  D  E
E------4---2--0--
H--2---5---3--0--
G--2---6---2--1--
D--2---6---0--2--
A------4---0--2--
E------4---0--0--

=================

Rythm. fig. 1

E------------------------------------------------------------------------|
H-----------------------------------------------------------------2------|
G-------------2-------2-------2-----------------2-------2-------2---2----|
D-----------2---2---2---2---2---2-------------2---2---2---2---2-------2--|
A---------0---------------------------------0----------------------------|
E-0-0-2-4---------4-------2-------0-0-0-2-4---------4-------2------------|
[ Tab from: http://www.guitartabs.cc/tabs/t/toten_hosen/er_denkt_sie_denkt_tab.html ]
E-------------------------------------------------------0----------------|
H-----3-------3-------3---------------3-------3-------4------------------|
G---2---2---2---2---2---2-----------2---2---2---2---1--------------------|
D-0-------------------------------0-------0-------2----------------------|
A---------4-------2-------0-0-2-4----------------------------------------|
E------------------------------------------------------------------------|

Chor, Chorus
============

Solo:
=====

E------------------------------------------------------------------------|
H------------------------------------------------------------------------|
G-------------------------------------------------------------1-2-2-2----|
D---2-4-4-4-2---2-4----------------2----2-4-4-4-2---2-4---2-4---------4--|
A-4-----------4------5-4-2---5-4-5----4-----------4----------------------|
E--------------------------0---------------------------------------------|

E------------|
H------------|
G------------|
D-0-0---0-2--|
A-----4------|
E------------|


Wehrend er die Spetnachrichten sieht,
wartet sie auf ihn im Bett.
Wenn er dann endlich in die Kissen kriecht,
schleft sie tief und fest.

Chor, Chorus
============

Sie suchen sich.
Sie brauchen sich.
Sie lieben sich.
Doch sie finden sie sich nie.


Comments