Tornados - Robot Chords & Tabs

 

Robot Chords & Tabs

Tornados Chords & Tabs

Version: 1 Type: Tab 0 ratings
1 star 2 stars 3 stars 4 stars 5 stars
comments

Robot Tab

Tornados - Robot
Tabbed by John Earp (spydrmann2000@yahoo.com)
From The Album "Play Telstar And Other Great Hits"
As usual, I like to play these with flange, distortion, and reverb.
This tab I am not certain of exactness, but I believe it is a fairly
good translation over from the original works.
Standard Tuning.


-------------------------------------------------------------------------
-------------------------------------------------------------------------
-9-9-9--5-5-5-------------------------5s7--9~----------------------------
---------------7-5-5s9-7------7--5s7-------------------------------------
--------------------------7~---------------------------------------------
-------------------------------------------------------------------------


-------------------------------------------------------------------------
-------------------------------------------------------------------------
-9-9-9--5-5-5------------------------5s7--5~-----------------------------
---------------7-5-5s9-7-----7--5s7--------------------------------------
--------------------------7~---------------------------------------------
-------------------------------------------------------------------------


-12-12-14-12-11-9------9----9-9--12-12-11-7------------------------------
------------------9-9~---------------------------------------------------
-------------------------------------------------------------------------
-------------------------------------------------------------------------
-------------------------------------------------------------------------
-------------------------------------------------------------------------


-12-12-14-12-11-9------9----9-9--7-7--5----------------------------------
------------------9-9~-------------------7-7-7-7-7-----------------------
-------------------------------------------------------------------------
-------------------------------------------------------------------------
-------------------------------------------------------------------------
-------------------------------------------------------------------------


-------------------------------------------------------------------------
-------------------------------------------------------------------------
-9-9-9--5-5-5-------------------------5s7--9~----------------------------
---------------7-5-5s9-7------7--5s7-------------------------------------
--------------------------7~---------------------------------------------
-------------------------------------------------------------------------


-------------------------------------------------------------------------
-------------------------------------------------------------------------
-9-9-9--5-5-5------------------------5s7--5~-----------------------------
---------------7-5-5s9-7-----7--5s7--------------------------------------
--------------------------7~---------------------------------------------
-------------------------------------------------------------------------


-12-12-14-12-11-9------9----9-9--12-12-11-7------------------------------
------------------9-9~---------------------------------------------------
-------------------------------------------------------------------------
-------------------------------------------------------------------------
-------------------------------------------------------------------------
-------------------------------------------------------------------------


-12-12-14-12-11-9------9----9-9--7-7--5----------------------------------
------------------9-9~-------------------7-7-7-7-7-7-7-5-----------------
-------------------------------------------------------------------------
-------------------------------------------------------------------------
-------------------------------------------------------------------------
-------------------------------------------------------------------------

[ Tab from: http://www.guitartabs.cc/tabs/t/tornados/robot_tab.html ]
-------------------------------------------------------------------------
-----------7-9-12--9------------------7--9-12--14-12---------------------
-7-9-10-9-------------11~----7-9-10-9------------------------------------
-------------------------------------------------------------------------
-------------------------------------------------------------------------
-------------------------------------------------------------------------


---------------------------10--10-10-12-10-9-7------9-8-7----------------
-----------7-9-14-12-10-12----------------------7s9--------9-8-7---------
-7-9-10-9----------------------------------------------------------------
-------------------------------------------------------------------------
-------------------------------------------------------------------------
-------------------------------------------------------------------------


-------------------------------------------------------------------------
-------------------------------------------------------------------------
-9-9-9--5-5-5-------------------------5s7--9~----------------------------
---------------7-5-5s9-7------7--5s7-------------------------------------
--------------------------7~---------------------------------------------
-------------------------------------------------------------------------


-------------------------------------------------------------------------
-------------------------------------------------------------------------
-9-9-9--5-5-5------------------------5s7--5~-----------------------------
---------------7-5-5s9-7-----7--5s7--------------------------------------
--------------------------7~---------------------------------------------
-------------------------------------------------------------------------


-------------------------------------------------------------------------
-------------------------------------------------------------------------
-7--7--9--9--12----------------------------------------------------------
-7--7--9--9--12----------------------------------------------------------
-5--5--7--7--10----------------------------------------------------------
-------------------------------------------------------------------------


-------------------------------------------------------------------------
-------------------------------------------------------------------------
-9-9-9--5-5-5-------------------------5s7--9~----------------------------
---------------7-5-5s9-7------7--5s7-------------------------------------
--------------------------7~---------------------------------------------
-------------------------------------------------------------------------


-------------------------------------------------------------------------
-------------------------------------------------------------------------
-9-9-9--5-5-5------------------------5s7--5~-----------------------------
---------------7-5-5s9-7-----7--5s7--------------------------------------
--------------------------7~---------------------------------------------
-------------------------------------------------------------------------


-12-12-14-12-11-9------9----9-9--12-12-11-7------------------------------
------------------9-9~---------------------------------------------------
-------------------------------------------------------------------------
-------------------------------------------------------------------------
-------------------------------------------------------------------------
-------------------------------------------------------------------------


-12-12-14-12-11-9------9----9-9--7-7--5----------------------------------
------------------9-9~-------------------7-7-7-7-7-7-7-5-----------------
-------------------------------------------------------------------------
-------------------------------------------------------------------------
-------------------------------------------------------------------------
-------------------------------------------------------------------------

Repeat this 6 times playing each quieter than the last
--9-9--7-7--5------------------------------------------------------------
---------------7-7-7-7-7-7-7---------------------------------------------
-------------------------------------------------------------------------
-------------------------------------------------------------------------
-------------------------------------------------------------------------
-------------------------------------------------------------------------
Comments