Toots And The Maytals - Pressure Drop Chords & Tabs

 

Pressure Drop Chords & Tabs

Toots And The Maytals Chords & Tabs

Version: 1 Type: Tab 0 ratings
1 star 2 stars 3 stars 4 stars 5 stars
comments

Pressure Drop Tab

   
#-----------------------PLEASE NOTE---------------------------#
# This file is the author's own work and represents their     #
# interpretation of the song. You may only use this file for  #
# private study, scholarship, or research.                    #
#-------------------------------------------------------------#


Pressure Drop           
(Toots and the Maytals)

Transcribed by darrenblin@hotmail.com

Capo on the first fret
It be played reggae style mon!

Bass Line (with accompanying guitar chords)

(Intro)   G(Ab)                   C(Db) 
    Ab--------------------------|------0-------------0--|-
    Eb---------0--------------0-|---2-------------2-----|-
    Bb------2--------------2----|-3-------------3-------|-
    F-----3--------------3------|-----------------------|-
(repeat once more)

The entire song then follows the following progression:

     G(Ab)               D(Eb)
Ab-----------------------------2-----------|-
Eb---------0---------0------0--------------|-
Bb------2---------2------0-----------------|-
F----3---------3---------------------------|-

     C(Db)               G(Ab)
Ab---------0---------0---------------------|-
Eb------2---------2------------0-----------|-
Bb---3---------3------------2--------------|-
F------------------------3-----------------|-



**************************************************************************************************************

**************************************************************************************************************

[ Tab from: http://www.guitartabs.cc/tabs/t/toots_and_the_maytals/pressure_drop_tab.html ]
My all-time favourite reggae song!!

SWEET & DANDY
(F. Hibbert)

The Maytals, 1968

The number one song of the fourth Jamaican Festival contest, 1969. 
To be played moderatly fast with a reggae beat.

Capo on the first fret

Opening riff(solo guitar):
F--------------------------------------------------------------------||-
C--------------------------------------------------------------------||-
G#-------------------------------------------------------------------||-
D#-------------------------------------------------------------------||-
Bb----0-3-6b-----0-3-5-----0-3-6b-----0-3-6---5---3--0---------------||-
F-------------------------------------------------------3--1---0-----||-


Transcribed by darrenblin@hotmail.com



************************************************************************************************************************

************************************************************************************************************************


You’re So Sober
The Trews


Tabbed by: Adam MacDonnell

Verse:
Em  G    C    G
C     G    D    D

Pre-Chorus

....Em.....................................C...C7 
e--0--------------0-----------0------------0-----0
B--0--------------0-----------0------------1-----1
G--0--------------0-----------0------------0-----3
D--2--------------1-----------0------------2-----2
A--2--------------2-----------2------------3-----3
E--0--------------0-----------0----------------
___I have the____Weather____On my side....

Chorus:
G C


Comments