Toots And The Maytals - Monkey Man Chords & Tabs

 

Monkey Man Chords & Tabs

Toots And The Maytals Chords & Tabs

Version: 3 Type: Bass Tab 0 ratings
1 star 2 stars 3 stars 4 stars 5 stars
comments

Monkey Man Bass Tab

---------------------------------------------------------------------------
	             monkey man -toots and the maytals
---------------------------------------------------------------------------

Tabbed By : joeandhisguitar
e-mail:roko12321@hotmail.com

this is my first tab and im only 14 so dont be too harsh
anyway im pretty sure its right and ive played it with the song so youve
jus gotta work out the timing n stuff like that
email me if youve got a prob or u jus need a freind.
joe

[ Tab from: http://www.guitartabs.cc/tabs/t/toots_and_the_maytals/monkey_man_btab_ver_3.html ]
Tuning:eadg
   
INTRO
G|--------------------------------------------------------------------------|
D|-------------------------------------------5-8-5-------7-10--7---8-8------|
A|--1----------1-----------1---1---1------6-----------8---------------------|
E|-----3-1-3----- 3--1--3-----------------------------------------------6---|

MAIN BIT
G|--------------------------------------------------------------------------|
D|------5--3-------5--3-----------------5-----------------------------------|
A|----------------------------------6-8---8-6-------------------------------|
E|---6---------66-------------8-10------------10----------------------------|

G|--------------------------------------------------------------------------|
D|------5--3-------5--3----------------5------------------------------------|
A|---------------------------------6-8---8-6--------------------------------|
E|---6---------66-------------8-10------------10----------------------------|
Comments