Tool - You Lied Chords & Tabs

 

You Lied Chords & Tabs

Tool Chords & Tabs

Version: 4 Type: Tab 0 ratings
1 star 2 stars 3 stars 4 stars 5 stars
comments

You Lied Tab

Tool
Salivial
you lied
track 6

2 guitars in this song

(distortion)

*suspended feedback for both guitars*

*rest for 6 bars while bass does intro*

(guitar 1)
e-----14-----12---------14-----15------15---------14-----12---------14------12-------|
b--15-----14----14---15-----17---17-17----17---15-----14----14---15------14----14-\--|
g------------------------------------------------------------------------------------|
d------------------------------------------------------------------------------------|
a------------------------------------------------------------------------------------|
d------------------------------------------------------------------------------------|
|(guitar 2)
e------------------------------------------------------------------------------------|
b------------------------------------------------------------------------------------|
g-----11-----9----------11-----12-----------------11-----9----------11------9--------|
d--12-----11---11----12-----14----14-----------12-----11---11----12------11---11-----|
a------------------------------------------------------------------------------------|
d------------------------------------------------------------------------------------|

(guitar 1)                               x3
e-------------------------------------------|-----------------------------|
b--12--12--12--13--13-13--13-10-10-10h(12)--|--13-12-13-12-10-*feedback*--|
g-------------------------------------------|-----------------------------|
d-------------------------------------------|-----------------------------|
a-------------------------------------------|-----------------------------|
d-------------------------------------------|-----------------------------|
|(guitar 2)
e-------------------------------------------|-----------------------------|
b-------------------------------------------|-----------------------------|
g-------------------------------------------|-----------------------------|
d--9---9---9---10--10-10--10-7--7--7h9------|--10-9--10-9--10-9--7--------|
a-------------------------------------------|-----------------------------|
d-------------------------------------------|-----------------------------|

(both)
e----------------------------------------------|
b----------------------------------------------|
g----------------------------------------------|
d--9--9--7h9-x-x-9--7h9-x-x-9--7h9-x-x-10-9-7--| x6
a--9--9--7h9-x-x-9--7h9-x-x-9--7h9-x-x-10-9-7--|
d--9--9--7h9-x-x-9--7h9-x-x-9--7h9-x-x-10-9-7--|
                                       pm - |

(guitar 1)
e-----14-----12-----12----14------15-----15--15-------14----12-----12----14----12----------|
b--15---15-14--14-14----15---15-17--17-17--17--17--15-----14--14-14----15----14--14-14-\\--|
g------------------------------------------------------------------------------------------|
d------------------------------------------------------------------------------------------|
a------------------------------------------------------------------------------------------|
d------------------------------------------------------------------------------------------|
|(guitar 2)
e------------------------------------------------------------------------------------------|
b------------------------------------------------------------------------------------------|
g------------------------------------------------------------------------------------------|
d--9--9--7h9-x-x-9--7h9-x-x-9--7h9-x-x-10-9-7--9--9--7h9-x-x-9--7h9-x-x-9--7h9-x-x-10-9-7--|
a--9--9--7h9-x-x-9--7h9-x-x-9--7h9-x-x-10-9-7--9--9--7h9-x-x-9--7h9-x-x-9--7h9-x-x-10-9-7--|
d--9--9--7h9-x-x-9--7h9-x-x-9--7h9-x-x-10-9-7--9--9--7h9-x-x-9--7h9-x-x-9--7h9-x-x-10-9-7--|
                                       pm - |                                        pm 
|

(guitar 1)
e-----------------------------------------------------------------|
b-----------------------------------------------------------------|
g-----------------------------------------------------------------|
d--9~-9-9-9-9-9-9--9~-9-9-9-9-9-9--9~-9-9-9-9-9-9--9~-9-9-10-9-7--|
a-----------------------------------------------------------------|
d-----------------------------------------------------------------|
|(guitar 2)                                                        x2
e-----------------------------------------------------------------|
b-----------------------------------------------------------------|
g-----------------------------------------------------------------|
d--9~-9-9-9-9-9-9--9~-9-9-9-9-9-9--9~-9-9-9-9-9-9--9~-9-9-10-9-7--|
a--9~-9-9-9-9-9-9--9~-9-9-9-9-9-9--9~-9-9-9-9-9-9--9~-9-9-10-9-7--|
d--9~-9-9-9-9-9-9--9~-9-9-9-9-9-9--9~-9-9-9-9-9-9--9~-9-9-10-9-7--|

(guitar 1)
e------------------------------------------------------------------------------|
b------------------------------------------------------------------------------|
g------------------------------------------------------------------------------|
d--9--*slight feedback*--------------------------------------------------------|
a------------------------------------------------------------------------------|
d------------------------------------------------------------------------------|
|(guitar 2)
e------------------------------------------------------------------------------|
b------------------------------------------------------------------------------|
g------------------------------------------------------------------------------|
d--9-9-9-9-9-9-/-11-11-11-11-11-11-11-/-12-12-12-12-12-12-/-14-14-14-14-14-14--|
a------------------------------------------------------------------------------|
d------------------------------------------------------------------------------|

(guitar 1)
e------------------------------------------------------------------------------|
b------------------------------------------------------------------------------|
g------------------------------------------------------------------------------|
d--9-7---9-7---9-7---9-7---9-7-9-7-9h7---9-7---9-7---9-7---9-7-----------------|
a------9-----9-----9-----9-------------9-----9-----9-----9-----9---------------|
d------------------------------------------------------------------------------|
| pm - - - - - - -
|(guitar 2)
e------------------------------------------------------------------------------|
b------------------------------------------------------------------------------|
g------------------------------------------------------------------------------|
d-/16-16-16-16-16-16--14-14-14-14-14-14--12-12-12-12-12-12--11-\-7---9---------|
a------------------------------------------------------------------------------|
d------------------------------------------------------------------------------|

(both)
e-------------------|
b-------------------|
g-------------------|
d-------------------| x16
a-------------------|
d--9-9-9-9-9-9-9-9--|
  pm - - - - - - -|

(both)
e----------------------------------------------|
b----------------------------------------------|
g----------------------------------------------|
d--9--9--7h9-x-x-9--7h9-x-x-9--7h9-x-x-10-9-7--| x2
a--9--9--7h9-x-x-9--7h9-x-x-9--7h9-x-x-10-9-7--|
d--9--9--7h9-x-x-9--7h9-x-x-9--7h9-x-x-10-9-7--|
                                       pm - |

(both)
e-----14-----12-----12----14------15-----15--15-------14----12-----12----14----12----------|
b--15---15-14--14-14----15---15-17--17-17--17--17--15-----14--14-14----15----14--14-14-\\--|
g------------------------------------------------------------------------------------------|
d------------------------------------------------------------------------------------------|
a------------------------------------------------------------------------------------------|
d------------------------------------------------------------------------------------------|

(guitar 1)
e-----------------------------------------------------------|
b-----------------------------------------------------------|
g-----------------------------------------------------------|
d-----------------------------------------------------------|
a--7--7--7h9-9-9-9-9--9/12-12--12--12/14-14-14/15-15p14-12--|
d-----------------------------------------------------------|
|(guitar 2)
e-----------------------------------------------------------|
b-----------------------------------------------------------|
g-----------------------------------------------------------|
d--9--9--9-10--10-10-10-7-7-7h9--9--9-10--10-10-10-7-7-7h9--|
a-----------------------------------------------------------|
d-----------------------------------------------------------|

(guitar 1)
e-----------------------------------------------------------|
b-----------------------------------------------------------|
g-----------------------------------------------------------|
d-----------------------------------------------------------|
a--7--7--7h9-9-9-9-9--9/12-12--12--12/14-14-14/15-15p14-12--|
d-----------------------------------------------------------|
|(guitar 2)
e-----------------------------------------------------------|
b-----------------------------------------------------------|
g-----------------------------------------------------------|
d--9--9--9-10--10-10-10-7-7-7h9---10-9-10-9-10-9-10-9--7h9--|
a-----------------------------------------------------------|
d-----------------------------------------------------------|

(both)
e-----------------------------------------------------------------|
b-----------------------------------------------------------------|
g-----------------------------------------------------------------|
d--9~-9-9-9-9-9-9--9~-9-9-9-9-9-9--9~-9-9-9-9-9-9--9~-9-9-10-9-7--|
a--9~-9-9-9-9-9-9--9~-9-9-9-9-9-9--9~-9-9-9-9-9-9--9~-9-9-10-9-7--|
d--9~-9-9-9-9-9-9--9~-9-9-9-9-9-9--9~-9-9-9-9-9-9--9~-9-9-10-9-7--|

(guitar 1)
e-----------------------------------------------------------------|
b-----------------------------------------------------------------|
g-----------------------------------------------------------------|
d--9~-9-9-9-9-9-9--9~-9-9-9-9-9-9--9~-9-9-9-9-9-9--9~-9-9-10-9-7--|
a--9~-9-9-9-9-9-9--9~-9-9-9-9-9-9--9~-9-9-9-9-9-9--9~-9-9---------|
d--9~-9-9-9-9-9-9--9~-9-9-9-9-9-9--9~-9-9-9-9-9-9--9~-9-9---------|
|(guitar 2)
e-----------------------------------------------------------------|
b-----------------------------------------------------------------|
g-----------------------------------------------------------------|
d--9~-9-9-9-9-9-9--9~-9-9-9-9-9-9--9~-9-9-9-9-9-9--9~-9-9---------|
a--9~-9-9-9-9-9-9--9~-9-9-9-9-9-9--9~-9-9-9-9-9-9--9~-9-9---------|
d--9~-9-9-9-9-9-9--9~-9-9-9-9-9-9--9~-9-9-9-9-9-9--9~-9-9---------|
[ Tab from: http://www.guitartabs.cc/tabs/t/tool/you_lied_tab_ver_4.html ]
(guitar 1)
e------------------------------------------------------------------------------|
b------------------------------------------------------------------------------|
g------------------------------------------------------------------------------|
d--9--*slight feedback*--------------------------------------------------------|
a------------------------------------------------------------------------------|
d------------------------------------------------------------------------------|
|(guitar 2)
e------------------------------------------------------------------------------|
b------------------------------------------------------------------------------|
g------------------------------------------------------------------------------|
d--9-9-9-9-9-9-/-11-11-11-11-11-11-11-/-12-12-12-12-12-12-/-14-14-14-14-14-14--|
a------------------------------------------------------------------------------|
d------------------------------------------------------------------------------|

(guitar 1)
e------------------------------------------------------------------------------|
b------------------------------------------------------------------------------|
g------------------------------------------------------------------------------|
d--9-7---9-7---9-7---9-7---9-7-9-7-9h7---9-7---9-7---9-7---9-7-----------------|
a------9-----9-----9-----9-------------9-----9-----9-----9-----9---------------|
d------------------------------------------------------------------------------|
| pm - - - - - - -
|(guitar 2)
e------------------------------------------------------------------------------|
b------------------------------------------------------------------------------|
g------------------------------------------------------------------------------|
d-/16-16-16-16-16-16--14-14-14-14-14-14--12-12-12-12-12-12--11-\-7---9---------|
a------------------------------------------------------------------------------|
d------------------------------------------------------------------------------|

(both)
e-------------------|
b-------------------|
g-------------------|
d-------------------| x16
a-------------------|
d--9-9-9-9-9-9-9-9--|
  pm - - - - - - -|

(both)
e----------------------------------------------|
b----------------------------------------------|
g----------------------------------------------|
d--9--9--7h9-x-x-9--7h9-x-x-9--7h9-x-x-10-9-7--| x4
a--9--9--7h9-x-x-9--7h9-x-x-9--7h9-x-x-10-9-7--|
d--9--9--7h9-x-x-9--7h9-x-x-9--7h9-x-x-10-9-7--|
                                       pm - |

(guitar 1, with wah open)
e-----------------------------------------------------------|
b-----------------------------------------------------------|
g-----------------------------------------------------------|
d-----------------------------------------------------------|
a--7--7--7h9-9-9-9-9--9/12-12--12--12/14-14-14/15-15p14-12--|
d-----------------------------------------------------------|
|(guitar 2)
e-----------------------------------------------------------|
b-----------------------------------------------------------|
g-----------------------------------------------------------|
d-----------------------------------------------------------|
a-----------------------------------------------------------|
d--9--9--9h11-11-11-11-/12-12--12--12/14-14-14b-------------|

(guitar 1)
e-----------------------------------------------------------|
b-----------------------------------------------------------|
g-----------------------------------------------------------|
d-----------------------------------------------------------|
a--7--7--7h9-9-9-9-9--9/12-12--12--12/14-14-14/15-15p14-12--|
d-----------------------------------------------------------|
|(guitar 2)
e-----------------------------------------------------------|
b-----------------------------------------------------------|
g-----------------------------------------------------------|
d-----------------------------------------------------------|
a--9--9--9h12-12-12--12/14-14--14--14/15-15-15/17-17b-------|
d-----------------------------------------------------------|

(guitar 1)
e-----------------------------------------------------------|
b-----------------------------------------------------------|
g-----------------------------------------------------------|
d-----------------------------------------------------------|
a--7--7--7h9-9-9-9-9--9/12-12--12--12/14-14-14/15-15p14-12--|
d-----------------------------------------------------------|
|(guitar 2)
e-----------------------------------------------------------|
b-----------------------------------------------------------|
g-----------------------------------------------------------|
d-----------------------------------------------------------|
a--17-16-17-16-17-16--12-14----17-16-17-16-17--12-14--------|
d-----------------------------------------------------------|

(guitar 1)
e-----------------------------------------------------------------|
b-----------------------------------------------------------------|
g--9--9--9h11-11-11-11-11--11/14-14--14--14/16-16-16/17-17p16-14--|
d-----------------------------------------------------------------|
a-----------------------------------------------------------------|
d-----------------------------------------------------------------|
|(guitar 2)
e-----------------------------------------------------------------|
b-----------------------------------------------------------------|
g------------------------------------------17b(18)(18)(18)r17-----|
d--14-14/16-16-16-16--19-19-19-19-19-19p16------------------------|
a-----------------------------------------------------------------|
d-----------------------------------------------------------------|

(guitar 1)
e-----------------------------------------------------------------------|
b-----------------------------------------------------------------------|
g-----------------------------------------------------------------------|
d-------------------------------------------7h9--------------7h9--------|
a---------7h9------------7h9------------7h9-----7h9------7h9-----7h9----|
d--9--7h9-----7h9---7h9-------7h9---7h9--------------7h9----------------|
|(guitar 2)
e-----------------------------------------------------------------------|
b-----------------------------------------------------------------------|
g--16--16--16--17--17-17--17-14-14-14h16--16--16--17--17-17--17-14-14---|
d-----------------------------------------------------------------------|
a-----------------------------------------------------------------------|
d-----------------------------------------------------------------------|

(guitar 1)
e-----------------------------------------------------------------------|
b-----------------------------------------------------------------------|
g-----------------------------------------------------------------------|
d--7h9-------------7h9--------------7h9--------------7h9----------------|
a------7h9-----7h9------7h9-----7h9------7h9-----7h9------7h9-----7h9---|
d----------7h9--------------7h9--------------7h9--------------7h9-------|
|(guitar 2)
e-----------------------------------------------------------------------|
b-----------------------------------------------------------------------|
g--16--16--16--17--17-17--17-14-14-14h16--16--16--17--17-17--17-14-14---|
d-----------------------------------------------------------------------|
a-----------------------------------------------------------------------|
d-----------------------------------------------------------------------|

(guitar 1, wah closed)
e---------------------------------------------------|
b---------------------------------------------------|
g---------------------------------------------------|
d--7h9--7h9--7h9--7h9-7h9--7h9--7h9--7h9--7h9-7h9---|
a---------------------------------------------------|
d---------------------------------------------------|
|(guitar 2)
e---------------------------------------------------|
b---------------------------------------------------|
g---------------------------------------------------|
d---7h9--7h9--7h9--7h9-7h9--7h9--7h9--7h9--7h9-7h9--|
a---------------------------------------------------|
d---------------------------------------------------|

(guitar 1)
e----------------------------------------------------|
b----------------------------------------------------|
g----------------------------------------------------|
d--9-9-9-9-9-9-9-9-9-9-9-9-9-9-9-9-7h9--7h9--7h9br---|
a----------------------------------------------------|
d----------------------------------------------------|
|(guitar 2)
e----------------------------------------------------|
b----------------------------------------------------|
g----------------------------------------------------|
d---7h9--7h9--7h9--7h9-7h9--7h9--7h9-7h9-7h9-7h9br---|
a----------------------------------------------------|
d----------------------------------------------------|

*rest for 2 bars*

(guitar 1)
e-----15-----12-------------------------------------|
b--14-----14----14----12--12--12--13--13-13--13-10--|
g---------------------------------------------------|
d---------------------------------------------------|
a---------------------------------------------------|
d---------------------------------------------------|
|(guitar 2)                                          x6
e---------------------------------------------------|
b---------------------------------------------------|
g-----11-----11-------------------------------------|
d--12-----9-----9-----9---9---9---10--10-10--10-7---|
a---------------------------------------------------|
d---------------------------------------------------|

(guitar 1)
e-----------------------------------------------------------|
b-----------------------------------------------------------|
g-----------------------------------------------------------|
d--10h9-9---------------------10--10-10-10p9-9--------------|
a-----------------------------------------------------------|
d-----------------------------------------------------------|
|(guitar 2)
e-----------------------------------------------------------|
b-----------------------------------------------------------|
g-----------------------------------------------------------|
d--9--9--9-10--10-10-10-7-7-7h9--9--9-10--10-10-10-7-7-7h9--|
a-----------------------------------------------------------|
d-----------------------------------------------------------|

(guitar 1)
e-----------------------------------------------------------|
b-----------------------------------------------------------|
g-----------------------------------------------------------|
d--10--10-10-10p9-9----------10--------10p9-----*feedback*--|
a-----------------------------------------------------------|
d-----------------------------------------------------------|
|(guitar 2)
e-----------------------------------------------------------|
b-----------------------------------------------------------|
g-----------------------------------------------------------|
d--9--9--9-10--10-10-10-7-7-7h9--9--9-----------------------|
a-----------------------------------------------------------|
d-----------------------------------------------------------|

(both)                                                               x2
e---------------------|-------------------------------------------------|
b---------------------|-------------------------------------------------|
g---------------------|-------------------------------------------------|
d--10-9-7-0-10-9-7-0--|--9--9--7h9-x-x-9--7h9-x-x-9--10-9-7-0-10-9-7-0--|
a--10-9-7-0-10-9-7-0--|--9--9--7h9-x-x-9--7h9-x-x-9--10-9-7-0-10-9-7-0--|
d--10-9-7-0-10-9-7-0--|--9--9--7h9-x-x-9--7h9-x-x-9--10-9-7-0-10-9-7-0--|
  pm - - - - - - - -|                               pm - - - - - - - -|

(both)                                                 x2
e---------------------------|-----------------------------|
b---------------------------|-----------------------------|
g---------------------------|-----------------------------|
d--9--9--7h9-x-x-9---10-10--|--7h9--9--7h9-x-x-9---10-10--|
a--9--9--7h9-x-x-9---10-10--|--7h9--9--7h9-x-x-9---10-10--|
d--9--9--7h9-x-x-9---10-10--|--7h9--9--7h9-x-x-9---10-10--|

(both)
e-------------------------------------|
b-------------------------------------|
g-------------------------------------|
d--10-10b----9--9--7h9-x-x-9---10-10--|
a--10-10b----9--9--7h9-x-x-9---10-10--|
d--10-10b----9--9--7h9-x-x-9---10-10--|

--------------------------------------------------------------------------------
Comments