Tool - You Lied Chords & Tabs

 

You Lied Chords & Tabs

Tool Chords & Tabs

Version: 2 Type: Tab 0 ratings
1 star 2 stars 3 stars 4 stars 5 stars
comments

You Lied Tab

You Lied
by
TooL
(Peach Cover)

ok this is how I play the song.  The peach version is a little different but u can play it the same.  If u 
anything different e-mail me.  Lachrymolgyfortheages@hotmail.com

Intro

guitar 1
e-----------------------------------|
B-----------------------------------|
G-----------------------------------|
D--4-----------4--------------------|      Repeat over and over
A------5-----------5----------------|
E-----------7-----------7-----------|

[ Tab from: http://www.guitartabs.cc/tabs/t/tool/you_lied_tab_ver_2.html ]
Guitar 2
e------14------12---------14-----15--------14-----12--------14------12----------|
B--15-------14----14---15-----17----17--15-----14---14---15------14----14-------|
G-------------------------------------------------------------------------------|
D-------------------------------------------------------------------------------|
A-------------------------------------------------------------------------------|
E-------------------------------------------------------------------------------|
then
e---------------------------------------------------------------------|
B--12-12-12-12-12-12-12-12-12-12-12/13-13-13\10-10--------------------|
G---------------------------------------------------------------------|
D---------------------------------------------------------------------|
A---------------------------------------------------------------------|
E---------------------------------------------------------------------|
3 times then
e---------------------------------------------------------------------|
B-12/13/12-12-12/13/12-12-12/13/12-12-10-10-8-8-6---------------------|
G---------------------------------------------------------------------|
D---------------------------------------------------------------------|
A---------------------------------------------------------------------|
E---------------------------------------------------------------------|

Main Riff
e--------------------------------------------------------------------|
B--------------------------------------------------------------------|
G--4--4--2--4-x-4--2--4-x-4--2--4--4--5--4--2------------------------|
D--4--4--2--4-x-4--2--4-x-4--2--4--4--5--4--2------------------------|
A--2--2--0--2-x-2--0--2-x-2--0--2--2--3--2--0------------------------|
E--------------------------------------------------------------------|

thats just about it if u like my tab or are just a tool fan write me.  Thanxs
Comments