Tool - Undertow Chords & Tabs

 

Undertow Chords & Tabs

Tool Chords & Tabs

Version: 3 Type: Tab 0 ratings
1 star 2 stars 3 stars 4 stars 5 stars
comments

Undertow Tab

   
I TAKE CREDIT FOR NONE OF THESE TABS, I MERELY THREW THEM TOGETHER AS THE WHOLE Undertow ALBUM. All tabs seen here were already previously submitted tabs. None of them are mine, so dont get angry because you saw your tab here.

1. Intolerance
2. Prison Sex
3. Sober
4. Bottom
5. Crawl Away
6. Swamp Song
7. Undertow
8. 4 Degrees
9. Flood
10. Disgustipated

_______________________________________________________________________________
1. Intolerance
---
Intolerance Tab by Tool, www.Ultimate-Guitar.Com

#----------------------------------PLEASE NOTE---------------------------------#
#This file is the author's own work and represents their interpretation of the #
#song. You may only use this file for private study, scholarship, or research. #
#------------------------------------------------------------------------------##
From: Jason Diamond 

intolerance by tool from the album undertow

transcribed by jason diamond 


dropped d tuning

e|--------------------------------------------
B|--------------------------------------------
G|--------------------------------------------
D|-------------------------------------------- x 4
A|---0--3--5--6-5-3-5-0--/10--3--5--6-5-3-5---
D|---0--3--5--6-5-3-5-0--/10--3--5--6-5-3-5---

e|-------------------------------------
B|-------------------------------------
G|-------------------------------------
D|------------------------------------- x 2
A|---------------------------------3---
D|---0--3--0--3--0-1--0--3--0--1-1-----

e|------------------------------------
B|------------------------------------
G|------------------------------------
D|------------------------------------ x 2
A|---5-----5--6--5-3--5-----5--6--3---
D|------3----------------3------------

e|-------------------------------------
B|-------------------------------------
G|-------------------------------------
D|------------------------------------- x 2
A|---------------------------------3---
D|---0--3--0--3--0-1--0--3--0--3-0-----

     pm - - - - - - - - - - - - - -

e|----------------------
B|----------------------
G|----------------------
D|---------------------- x 3
A|---------------xxxx---
D|---0-----0-----xxxx---

     pm - - - - - - -

e|----------------------------------------
B|----------------------------------------
G|----------------------------------------
D|---------------------------------------- x 2
A|---10--0--0--0--0-0--10--0--0--0--0-3---
D|---10--0--0--0--0-0--10--0--0--0--0-3---

e|----------------------------------------
B|----------------------------------------
G|----------------------------------------
D|----------7--7--7-7---------7--7-------- x 2
A|---10--0--5--5--5-5--10--0--5--5--0-3---
D|---10--0--0--0--0-0--10--0--0--0--0-3---

e|-------------------------------------
B|-------------------------------------
G|-------------------------------------
D|------------------------------------- x 2
A|---0--3--0--3--0-1--0--3--0--1-1-3---
D|---0--3--0--3--0-1--0--3--0--1-1-----

e|-------
B|---3---
G|-------
D|-------
A|-------
D|-------

     hold this note and let feed back

e|---------------------------------------------
B|---------------------------------------------
G|---------------------------------------------
D|--------------------------------------------- x 2
A|-----------------------------------3h5-5-5---
D|---0-xxxx-0-xxxxxxxx-0-xxxx-0-xxxx-----------

     second time hold last note and let feed back while vibrating

e|----------------------------------------
B|----------------------------------------
G|----------------------------------------
D|---------------------------------------- x 2
A|---10--0--0--0--0-0--10--0--0--0--0-3---
D|---10--0--0--0--0-0--10--0--0--0--0-3---

e|----------------------------------------
B|----------------------------------------
G|----------------------------------------
D|----------7--7--7-7---------7--7-------- x 2
A|---10--0--5--5--5-5--10--0--5--5--0-3---
D|---10--0--0--0--0-0--10--0--0--0--0-3---

e|--------------------------
B|--------------------------
G|--------------------------
D|-------------------------- x 4
A|---3---3---3---3---0--0---
D|-----5---5---5---0-0--0---

e|--------------------------------------------
B|--------------------------------------------
G|--------------------------------------------
D|-------------------------------------------- x 2
A|---0--3--5--6-5-3-5-0--/10--3--5--6-5-3-5---
D|---0--3--5--6-5-3-5-0--/10--3--5--6-5-3-5---

e|------------------------------------------
B|------------------------------------------
G|------------------------------------------
D|------------------------------------------ x 2
A|-----------------------3------------------
D|---0--3--5--6-5-3-5-0-----3--5--6-5-3-5---

     ah - - - - - - - - - - - - - - - - -

insert various guitar noises here

e|----------------------------------------
B|----------------------------------------
G|----------------------------------------
D|---------------------------------------- x 2
A|---10--0--0--0--0-0--10--0--0--0--0-3---
D|---10--0--0--0--0-0--10--0--0--0--0-3---

e|----------------------------------------
B|----------------------------------------
G|----------------------------------------
D|----------7--7--7-7---------7--7-------- x 2
A|---10--0--5--5--5-5--10--0--5--5--0-3---
D|---10--0--0--0--0-0--10--0--0--0--0-3---

e|--------------------------
B|--------------------------
G|--------------------------
D|-------------------------- x 8
A|---3---3---3---3---0--0---
D|-----5---5---5---0-0--0---

e|--------------------------
B|--------------------------
G|---5---5---5---5----------
D|-----5---5---5---0----7--- x 4
A|-------------------0--5---
D|-------------------0--0---

e|--------------------------------------
B|--------------------------------------
G|-----5----------------7---------------
D|-------------------------------------- x 2
A|---3---5-6-7p6-6p5--3---5-6-7p6-6p5---
D|--------------------------------------

     ah - - - - - - - - - - - - - - -

     this doesn't sound exactly right but it'll do

e|---------------------------------
B|---------------------------------
G|---------------------------------
D|--------------------------------- x 4
A|---0--10-------------------------
D|---0--10--10--12--13p12--10-10---

e|-------
B|-------
G|-------
D|-------
A|---0---
D|---0---


please send any corrections/comments to diamond@cyber.net

_____________________________________________________________________________
2. Prison Sex
---
Prison Sex Tab by Tool, www.Ultimate-Guitar.Com

From: jonriley@indirect.com (Jon Riley)
Subject: TAB: Prison Sex (Tool)

I believe I remember someone requesting whatever Tool songs anyone might 
have. I looked around Nevada, and they don't even have a Tool directory.
So I took it upon myself to whip this up. I didn't have the tape with me, 
so if there are any mistakes, they're probably my on errors in playing 
the song, and there are lots of different fingerings you can use with 
this song. Oh well, at least it sounds right to *me*... I can guarantee 
the timing isn't accurate.

I also know just about everything on Undertow. I might get around to 
posting them, but I'm not to good at transcription, and Tool songs aren't 
too easy to transcribe...

Dropped D

X=muffled
h=hammer-on
p=pull-off
^=bend

Intro...
----------------------------- 4X... -----------------------
-----------------------------       -----------------------
-----------------------------       -----------------------
-----------------------0-h1--       -2--2-0--0-------------
-2--2-2-2-2-2--2-2-2-2-------       -----------2--2-0-2-5--
-----------------------------       -----------------------
    X X X X    X X X X

------------------------- 4X...
----------2--------------
----7-----2--------------
----7-----2-------0-h4---
-0--5--0--0----0--0-h2---
-0-----0-------0---------
 X     X       X

                           
--------------------------       -------------------------
--------------------------       -------------------------                    
--------------------------       ----7-----9--------------
--------------------------       ----7-----7-(slide down)-
-5--2--0--7---2--0-2-0-2--       -5--5--0-----------------
--------------------------       -0-----0-----------------
                                  X     X
		 a few times, and then ^


I need you to feel this....
-------------------------- bunch ------------------------------------
(slide up and down)-------  'o   ------------------------------------
-------------------------- times ------------------------------------
-4---14---7---9--7--9--9--       -4-4-4-9-9-9-7-7-7-12-12-12-9-9-7-7-
-2---12---5---7--5--7--7--       -2-2-2-7-7-7-5-5-5-10-10-10-7-7-5-5-
--------------------------       ------------------------------------

After the second 'I need you to feel this' part...

------------------------------- a few times..
-------------------------------
-------------------------------
-------------------0-h7-p0-h7--
-2--2-2--2-2--2-2--------------
-------------------------------
 X  X X  X X  X X

Cool sounding pseudo-solo part of the song:
-------------------------------------
-------------------------------------
--------------4----------------------
------2----4------4---2--0-----------
-2---------------------------0----2--
-------------------------------------

------------------------------------------------
------------------------------------------------
-----4-------3-------2--------------------------
---4-4-----4-4-----4-4-----4--4--4-4-4-4--------
-2-------2-------2---------2--2--2-2-2-2--------
------------------------------------------------

--------------------------------------------------------------------------
--12---12---12--12-12-12--11---11---11-11-11-11--10---10---10-10-10-10----
--11---11---11--11-11-11--11---11---11-11-11-11--11---11---11-11-11-11----
--9----9----9---9--9--9---9----9----9--9--9--9---9----9----9--9--9--9-----
--------------------------------------------------------------------------
--------------------------------------------------------------------------

--------------------------
--------------------------
--------------------------
-9^10--9^10--9^10--9^10---
--------------------------
--------------------------

I have found some kind of temporary sanity in this...
-------------------------------------------------------------
-------------------------------------------------------------
-------------------------------------------------------------
------4--2-0--------4---2--4--5--5--4---2--0-----4--2-0------
--2-----------2-------------------------------2--------------
-------------------------------------------------------------

I've come round full circle....
------------------------------------------------------------- a few times
-------------------------------------------------------------
------------------7-(slide down)-----------------------------
------------------5------------------------------------------
--2---2---2--2-2---------------------------------------------
-------------------------------------------------------------
  X   X   X  X X


-------------------------  A few times.
-------------------------
-------------------------
-----------------7--9--7-
--2-0--5-0--7-0----------
-------------------------

And those two weird ending chords:
---       ---
-0-       -0-
-4-  and  -4-
-5-       -5-
-2-       -3-
---       ---

_____________________________________________________________________________
3. Sober
---
Sober
By TOOL
Undertow
 
Please send me any comments or Tab from 
Soundgarden(Badmotorfinger), any Led Zeppelin, 
Nirvana(Incesticide), any White Zombie, 
C.O.C., or TOOL.  I really nedd these tabs and I 
would like them to be accurate.  Maybe you can 
scan or copy them out of a guitar magazine.  If 
you want I will be willing to trade 
tabs for the ones I have listed.  Send them to my
e-mail address ad336@rgfn.epcc.edu.  Thanks.
 
Drop D-Tuning
6-D
 
^-Bend String
/-Slide
/\-Vibrato
H-Hammer ON
P-Pulloff
 
Moderate Rock-156
Half Time Feel
Intro-Feedback
 
			Full--hold bend------------|       Full--hold bend -----------------------------
E|----------------------------------------------------------------------------
B|--10^--10--10--10--10----10----10^---10---10---10---10-10-10-10-10-10-10
G|--12^--12--12--12--12----12----12^---12---12---12---12-12-12-12-12-12-12
D|----------------------------------------------------------------------------
A|----------------------------------------------------------------------------
D|----------------------------------------------------------------------------
 
   ------------------------------------------------grad. release----------------
E|----------------------------------------------------------------------------
B|--10-10-10-10-10-10-10-10-10-10-10-10-10-10-10-10-10-10-10-10-10-10---
G|--12-12-12-12-12-12-12-12-12-12-12-12-12-12-12-12-12-12-12-12-12-12---
D|----------------------------------------------------------------------------
A|----------------------------------------------------------------------------
D|----------------------------------------------------------------------------
 
   ------------------------/                                                   P.M--|     
E|----------------------------------------------------------------------------
B|--10-10-10-10-10-10-10----10-----------3-----------------------3----------
G|--12-12-12-12-12-12-12----12-----------2-----------------------3----------
D|---------------------------------0-------0-----------------------0----------
A|----------------------------------------------------------0-0---------------
D|----------------------------------------------------------------------------
 
     P.M--|                               P.M--|    
E|----------------------------------------------------------------------------
B|----------3-----------------------0-----------------------------------------
G|----------2-----------------------3--------------------14---14-14----------
D|----------0-----------------------3----------------0----0----0--0----------
A|---0-0---------------------0-0---------------------------------------------
D|----------------------------------------------------------------------------
 
                                         
                                            sl.
E|----------------------------------------------------------------------------
B|----------------------------------------------------------------------------
G|-14---12-12---12-12-12/15---15---15-15---15---12-12--12--12-------------
D|--0----0--0----0--0-- 0--------0----0--0----0----0--0----0--0-------------
A|----------------------------------------------------------------------------
D|----------------------------------------------------------------------------
 
                                                                                                   
        sl.                                                                                               sl.
E|----------------------------------------------------------------------------
B|----------------------------------------------------------------------------
G|--12/14------14----14--14----14----12--12----12--12----12/15------15----
D|---0----------0------0---0-----0-----0---0-----0---0------0----------0----
A|----------------------------------------------------------------------------D|----------------------------------------------------------------------------
 
                               sl.
E|------------------------------------------
B|------------------------------------------
G|--15----15----15/17----17--17--17----17-
D|---0-----0-----0---------0---0---0-----0-
A|------------------------------------------
D|------------------------------------------
 
Ist Verse
 
                                                                   P.M.--|     
E|----------------------------------------------------------------------------
B|----------------------------------------------------------------------------
G|--2----------------2-2---3----------------2-------2----------------3-------
D|--0----------------------0------------------------0----------------0--------
A|---------------------------------------------0------------------------------
D|----------------------------------------------------------------------------
 
                                               
E|----------------------------------------------------------------------------
B|----------------------------------------------------------------------------
G|---------3----------------2------2----2--2------2------0--0------0--0------
D|---------0----------------0------0----0--0------0------0--0------0--0------
A|----------------------------------------------------------------------------
D|----------------------------------------------------------------------------
 
 
       sl.
E|----------------------------------------------------------------------------
B|----------------------------------------------------------------------------
G|--2/3------3------3--3------3----0--0------0--0------0H2------2------2--2-
D|--0--------0------0--0------0----0--0------0--0------2--------0------0--0-
A|----------------------------------------------------------------------------
D|----------------------------------------------------------------------------
 
 
                                                           sl.                                            sl.
E|----------------------------------------------------------------------------
B|----------------------------------------------------------------------------
G|------2------0--0------0--0----2/3------3------3--3------3/5----5--5--5---
D|------0------0--0------0--0----0--------0------0--0------0------0--0--0---
A|----------------------------------------------------------------------------
D|----------------------------------------------------------------------------
 
                  PreChorus
 
                  P.M.---------------|           P.M.---------|          P.M.-------|
E|----------------------------------------------------------------------------
B|-----------------------------15-----------------15--------------16---------
G|---5-------------------------14-----------------14--------------15--------
D|---0------------------------------------------------------------------------
A|----------------------------------------------------------------------------
D|---------12-12-12-12-12-12-------12-12-12-12-------12121212-------------
 
 
    P.M.---------|           P.M.---------|         P.M.-----|          P.M.----------|
E|----------------------------------------------------------------------------
B|----------------16----------------16------------15----------------15-------
G|----------------15----------------15------------14----------------14-------
D|----------------------------------------------------------------------------
A|----------------------------------------------------------------------------
D|--13-13-13-13------13-13-13-13------12121212------12-12-12-12-----------
 
 
     P.M.---------|          P.M.------|         P.M.----------|
E|----------------------------------------------------------------------------
B|----------------15-------------16----------------16------16---16---16-----
G|----------------14-------------15----------------15------15---15---15-----
D|----------------------------------------------------------------------------
A|----------------------------------------------------------------------------
D|--12-12-12-12------12121212-------13-13-13-13---------------------------
 
 
                                                              Chorus
E|----------------------------------------------------------------------------
B|--16---16-16-16-16-16-16-16----------------------------------------------
G|--15---15-15-15-15-15-15-15----------------------------------------------
D|------------------------------------0--------------------------------------
A|------------------------------------0--------------------------------------
D|------------------------------------0--------------------------------------
 
E|-------------------------------------
B|-------------4----------4---4--4--4-
G|-------------3----------3---3--3--3-
D|--1----------------------------------
A|--1----------------------------------
D|--1----------------------------------
 
Repeat Chorus 3 Times
 
Guitar Solo
                                                                                           grad. bend
     /\/\/\/\/\/\/\/\/\/\/\/\/\/\                                         ---------Full--|
E|---------------------------------------------------------------------------
B|--------------------------------3--5----------------------------------------
G|--2-----------------------------2--2---3----------3^------------------------
D|----------------------------------------------------------------------------
A|----------------------------------------------------------------------------
D|----------------------------------------------------------------------------
 
                                                                              /\/\/\/\/\/\/\/\/\/\/\/\/\/\/\/\
E|------------5---------------------------------------------------------------
B|------------------------3--5-----------------------------------------------
G|--2---------------------2--2--3------3/5--5--------------------------------
D|----------------------------------------------------------------------------
A|----------------------------------------------------------------------------
D|----------------------------------------------------------------------------
 
 
E|-------
B|-------
G|-------
D|--0--0-
A|-------
D|-------
 
2nd Verse
 
E|----------------------------------------------------------------------------
B|----------------------------------------------------------------------------
G|--2----------------3----------------2----------------3----------------7----
D|--0----------------0----------------0----------------0----------------7----
A|----------------------------------------------------------------------------
D|----------------------------------------------------------------------------
 
                                            sl.
E|----------------------------------------------------------------------------
B|----------------------------------------------------------------------------
G|----7------7--7--------7/5----5------5--5----5/8------8------8--8---------
D|----7------7--7--------7/5----5------5--5----5/8------8------8--8---------
A|----------------------------------------------------------------------------
D|----------------------------------------------------------------------------
 
      sl.                                     sl.                                                  sl.
E|----------------------------------------------------------------------------
B|----------------------------------------------------------------------------
G|--8/5----5------5--5----5/7--------7------7--7--------7/5----5------5--5--
D|--8/5----5------5--5----5/7--------7------7--7--------7/5----5------5--5--
A|----------------------------------------------------------------------------
D|----------------------------------------------------------------------------
 
 
          sl.                                                sl.
E|-----------------------------------------------------------
B|-----------------------------------------------------------
G|----5/8--------8------8--8------8/10----10--10--10----10-
D|----5/8--------8------8--8------8/10----10--10--10----10-
A|-----------------------------------------------------------
D|-----------------------------------------------------------
 
PreChorus
Chorus 4 Times
 
                                                                                improvise w/ trem. and feedback
                                                                                      sl.
E|----------------------------------------------------------------------------
B|--3-------------------------------------------3/15-------------------------
G|--2-------------------------------------------2/14-------------------------
D|--0-------------------------------------------------------------------------
A|--0-------------------------------------------------------------------------
D|--0-------------------------------------------------------------------------
 
 
3rd Verse
Bass plays notes for the next 10 bars
 
                  Grad. release palm pressure
   P.M.-------------------------------------------------------------------------
E|----------------------------------------------------------------------------
B|----------------------------------------------------------------------------
G|--8---8---8---8---8---8---8---8---8---8---8---8---8---8---8---8---7---7---
D|--8---8---8---8---8---8---8---8---8---8---8---8---8---8---8---8---7---7---
A|--6---6---6---6---6---6---6---6---6---6---6---6---6---6---6---6---5---5--
D|----------------------------------------------------------------------------
 
 
 
E|----------------------------------------------------------------------------
B|----------------------------------------------------------------------------
G|--7---7---7---7---7---7---7---7---7---7---7---7---7---7---8---8-----------
D|--7---7---7---7---7---7---7---7---7---7---7---7---7---7---8---8-----------
A|--5---5---5---5---5---5---5---5---5---5---5---5---5---5---6---6-----------
D|----------------------------------------------------------------------------
 
 
                                  Full------------|
E|-----------------17^--17--17--17--
B|-----------------20^--20--20--20--
G|--8---8---------------------------
D|--8---8---------------------------
A|--6---6---------------------------
D|----------------------------------
 
Chorus 4 Times
Outro
 
E|----------------------------------------------------------------------------
B|--3----------3------3--3------3--3/4--4------4----4----4------4--6--------
G|--2----------2------2--2------2--2/3--3------3----3----3------3--3--------
D|--0-------------------------------------------------------------------------
A|--0-------------------------------------------------------------------------
D|--0-------------------------------------------------------------------------
 
 
                                            Full-------|
E|----------------------------------------------------------------------------
B|--6--4------4----------3^---3---3------3--3----3--3----3--3--3----4-------
G|--3--3------3--0--0----5^---5---5------5--2----2--2----2--2--2----3-------
D|----------------------------------------------------------------------------
A|----------------------------------------------------------------------------
D|----------------------------------------------------------------------------
 
                                                                                        Full------------|
E|----------------------------------------------------------------------------
B|--4------4--4------4--6------6--4----------------15^---15---15------------
G|--3------3--3------3--3------3--3------2P0-------17^---17---17-----------
D|----------------------------------------------------------------------------
A|----------------------------------------------------------------------------
D|----------------------------------------------------------------------------
 
 
E|----------------------------------------------------------------------------
B|--15---15------15--15------15--15------15--15--15----16------16------16--
G|--17---14------14--14------14--14------14--14--14----15------15------15--
D|----------------------------------------------------------------------------
A|----------------------------------------------------------------------------
D|----------------------------------------------------------------------------
 
                                                                                               Full------------|
E|----------------------------------------------------------------------------
B|--16------16--18------18--16------16---15---13------15^---15---15--------
G|--15------15--15------15--15------15---12---12------17^---17---17--------
D|----------------------------------------------------------------------------
A|----------------------------------------------------------------------------
D|----------------------------------------------------------------------------
 
E|----------------------------------------------------------------------------
B|--15----15------15--15------15--15----15--16------16------16--16---------
G|--17----14-------------------------------------------------------------------------------
A|----------------------------------------------------------------------------
D|----------------------------------------------------------------------------
 
E|----------------------------------------------------------------------------
B|--16--18------18---16------------------------------------------------------
G|--15--15------15---15--------------7---7------7---7-----------------------
D|------------------------------------7---7------7---7-----------------------
A|------------------------------------5---5------5---5-----------------------
D|-------------------------0-0-0---------------------------------------------
 
E|----------------------------------------------------------------------------
B|----------------------------------------------------------------------------
G|------8---8------8---8---------------------7---7------7---7----------------
D|------8---8------8---8---------------------7---7------7---7----------------
A|------6---6------6---6---------------------5---5------5---5----------------
D|----------------------------------------------------------------------------
 
E|----------------------------------------------------------------------------
B|----------------------------------------------------------------------------
G|-----8---8------8---8---------------------7---7------7---7-----------------
D|-----8---8------8---8---------------------7---7------7---7-----------------
A|-----6---6------6---6---------------------5---5------5---5-----------------
D|----------------------------------------------------------------------------
 
There it is.  All of the songs riffs are here.  
Listen to it to figure where they go.  This is 
as accurate as you can get.  Please send any 
comments and tab to ad336@rgfn.epcc.edu.
 
 
 

--
ex

edit

_____________________________________________________________________________
4. Bottom
---
By Tool
From Undertow

Transcribed by Patrick Cevasco
(cevasp@rpi.edu)

I think that this is one of the best songs on the album and I was lucky
enough to stumble across the beginning the other day while I was playing.

p = pull off
h = hammer on
X = muted string
= slide up
\ = slide down
P.M. = palm mute

Use dropped D tuning (Drop the low E string to a D)

Since I am typing this, the spacing isn't exact, but it is not hard to
figure out.  I put the h's and p's above the chords instead in between
them so that it is easier to compare the spacings between the chords.



Fig 1
E|------------------------------|
B|------------------------------|
G|---------h----p---h------p----|
D|-5----0-2-3--3-2-0-2-3--3-2-0-|
A|-5----0-2-3--3-2-0-2-3--3-2-0-|
D|-5----0-2-3--3-2-0-2-3--3-2-0-|

Fig 1A
E|------------------------------|
B|------------------------------|
G|--------h----p---h-------p----|
D|-5---0-2-3--3-2-0-2-3---3-2-0-|
A|-5---0-2-3--3-2-0-2-3---3-2-0-|
D|-5---0-2-3--3-2-0-2-3---3-2-0-|
  Note the difference
  in the spacing.  The second
  figure has a longer pause
  toward the end.
Fig 1B
E|------------------------------|------|
B|------------------------------|------|
G|--------h----p---h------------|------|
D|-5---0-2-3--3-2-0-2-3-------3-|-0----|
A|-5---0-2-3--3-2-0-2-3-------3-|-0----|
D|-5---0-2-3--3-2-0-2-3-------3-|-0----|

Fig 2
E|-------------------------------|
B|-------------------------------|
G|-------------------------------|
D|--------XXXXXXX---------XX-----|
A|--------XXXXXXX---------XX-3-3-|
D|-0--2-3-XXXXXXX--0--2-3-XX---3-|

Fig 3
E|---------------------|
B|---------------------|
G|---------h-----------|
D|-3/5-0--2-3-2---0--2-|
A|-3/5-0--2-3-2---0--2-|
D|-3/5-0--2-3-2---0--2-|

Fig 4
E|--------------------------|
B|--------------------------|
G|--------------------------|
D|--------------------------|
A|-----3--------------------|
D|-3-------0----------------|

               ##############################################

And this is how it goes...



Play Fig  1, then
     Fig 1A, then
     Fig  1, then
     Fig 1B, then
Pause for about 13 sec letting the last chord ring, then
Play Fig 2 - 4x, then

Play Fig 2 - 4x (this time palm mute the strings)
(Something?) is broken now
(Something has roped?) it now
Dishonor(?) is broken now
It makes feel...
Do a side up
UGLY!

Play Fig  1 (starting with the word "On"), then
     Fig 1A, then
     Fig  1, then
     Fig 1B, (w/o the last chord )
On my knees and burning
My piss(?) and bones(?) are human
I set my head on fire
Smell my soul its burning

Do a slide up (During the word "burning")
Play Fig 2 - 8x (?) (Start this right after the slide)
Broken
(Broken up?) to see the enemy
And I have swallowed the poison you feed me
But I survive on the poison you feed me (Even though you)
Guilt, fed
Hatred, fed
Weakness, fed
It makes feel...
Do a slide up
UGLY!

Play Fig  1 (starting with the word "On"), then
     Fig 1A, then
     Fig  1, then
     Fig 1B, (w/o the last chord )
On my knees and burning
My piss(?) and bones(?) are human
I set my head on fire (I'm dead in)

Play Fig 3 - 8x (starting w/ the word "SIDE")
.....SIDE!........
[Shit adds up] 3x
Shit adds up at the bottom.....


[Interlude: - spoken by Henry Rollins]

Play Fig 4 through the entire interlude (about 18 x)

If I let you, you would make me destroy myself
In order to survive you, I must first survive myself
And I can sink no further, and I cannot forgive you
There's no choice but to confront you, to engage you, to erase you
I've gone to great lengths to expand my threshold of pain
I will use my mistakes against you
There is no other choice
Shameless now
Nameless now
Nothing now
No one now
But my soul must be iron
Cause my fear is naked
I'm naked and fearless,


Then play this.....
    E|-------------------------|
    B|-------------------------|
    G|-------------------------| 
    D|-----------------3-0-3-0-|
    A|-----------------3-0-3-0-|
    D|-0-0-0-0-0-0-0-0-3-0-3-0-|
And my fear is naked
[ Tab from: http://www.guitartabs.cc/tabs/t/tool/undertow_tab_ver_3.html ]
Then play Fig 3 - 8x (Starting w/ the word "Dead")
[Dead inside] 4x
Nameless now
Shameless now
Nothing now
No one now

Then there is some picking part which I haven't figured out yet
[Shit adds up] 4x

Then play Fig 3 - 4x (Starting w/ the word "naked")
As you see me naked now
Fearless now
Naked now
Fearless now

Then there is that picking again
[Shit adds up] 3x

Play Fig 3 - 4x (Starting w/ the word "dead")
It leaves me dead inside
      dead inside
     dead inside
     dead in........SIDE!

Then play variations of this
E|---------------------|
B|---------------------|
G|---------------------|
D|-0--X-2--X-5--X-3--X-|
A|-0--X-2--X-5--X-3--X-|
D|-0--X-2--X-5--X-3--X-|

Then comes this
E|--------------------------------------------------------|
B|--------------------------------------------------------|
G|--------------------------------------------------------|
D|-0--3--0--3--0--3--0--3--0--3-3--0--3-3--0--3-3--0--3-3-|
A|-0--3--0--3--0--3--0--3--0--3-3--0--3-3--0--3-3--0--3-3-|
D|-0--3--0--3--0--3--0--3--0--3-3--0--3-3--0--3-3--0--3-3-|

Then play Fig  1, (Starting w/ the word "Hatred") then
  Fig 1A, then
  Fig  1, then
  Fig 1A
Hatred accuse me of lying
Cowardice accuse me of lying
Weakness accuse me of lying
Guilt accuse me of lying at the bottom

Then comes some stuff I didn't even try to tab

And it ends with
E|---------------------|
B|---------------------|
G|---------------------|
D|-5----0--------------|
A|-5----0--------------|
D|-5----0--------------|

               ##############################################

And that is about it.

Just so there is no confusion, what is right above each sectiuo of
the lyrics gets played through that entire section, not befpre.
If you listen to the song it will be easy to figure out.

Not all of the lyrics are correct but that was the best I could do.
I left out some stuff that gets played in the background, especially at
the very end.

Send any questions or comments to: cevasp@rpi.edu

I hope I didn't screw it up too much
_____________________________________________________________________________
5. Crawl Away
---
Crawl Away Tab by Tool, www.Ultimate-Guitar.Com

#----------------------------------PLEASE NOTE---------------------------------#
#This file is the author's own work and represents their interpretation of the #
#song. You may only use this file for private study, scholarship, or research. #
#------------------------------------------------------------------------------##
From: s1089960@sandcastle.cosc.brocku.ca (RAKIC MICHAEL)

Note: I am NOT the transcriber of these songs, I am just reposting it as 
someone else had requested it. The name of those who figued out these 
SONG 5 Crawl Away

Crawl Away
----------
by Tool
From Undertow

Normal tuning

e---------------------------------|
b---------------------------------|
g---------3-----6-------3-----3---| X 3
D-2/4-4-4-----4-----4-4-----4---4-|
A---------------------------------|
E---------------------------------|

|---------------------------------|
|---------------------------------|
|---------3-----6B(7)---P0--------|
|-2/4-4-4-----4-------------------|
|---------------------------------|
|---------------------------------|

|-----------------------------------------------------------------|
|-----------------------------------------------------------------|
|-----------------------------------------------------------------|
|-----------------------------------------------------------------|
|-4(4)4---4----4--4--4--4-4-4-------------------------------------|
|-0H2-2-0-2--0-2--2--2--2-2-2-------------------------------------|


"Crawl Away"  by Tool     from _Undertow_
Transcribed by Brian G. Smith  

Notation:
s = slide, h = hammeron, p = pulloff, b = bend, r = release
~ = vibrato, x = muffle, * = pinch harmonic

Intro
   < Repeat this measure three times >
g |------|---------3-----6-------3-----3-0-|---------3-----6/7---\---0-------|
d |-0----|-2/4-4-4-----4-----4-4-----4-----|-2/4-4-4-----4--b----p-----------|
a |------|--s------------------------------|---------------------------------|
e |------|---------------------------------|---------------------------------|
           1       2       3       4         1       2       3       4

Riff A:

g |---------------------------------|---------------------------------|
d |--h------------------------------|--h------------------------------|
a |-4-4-----4-----4---4---4-----4---|-4-4-----4-----4---4---5-----5---|
e |-0/2-2-0-2---0-2---2---2---0-2-0-|-0/2-2-0-2---0-2---2-------------|
    1       2       3       4         1       2       3       4

g |---------------------------------|---------------------------------|
d |--h------------------------------|--h------------------------------|
a |-4-4-----4-----4---4---4-----4---|-4-4-----4-----4---4-----5-4-2~--|
e |-0/2-2-0-2---0-2---2---2---0-2-0-|-0/2-2-0-2---0-2---2---0---------|
    1       2       3       4         1       2       3       4

Repeat Riff A, then play Riff B:

g |---------------------------------|---------------------------------|
d |-9-------9-----9---9---9---------|--h------------------------------|
a |-7-------7-----7---7---7---------|-4-4-----4-----4---4---5-----5---|
e |-----0-0-----0-------------0-0-0-|-0/2-2-0-2---0-2---2-------------|
    1       2       3       4         1       2       3       4

g |---------------------------------|---------------------------------|
d |-9-------9-----9---9---9---------|-11------11-----b-----r----------|
a |-7-------7-----7---7---7---------|-9---9-9-9---9-9/10~--\--9~------|
e |-----0-0-----0-------------0-0-0-|---------------------------------|
    1       2       3       4         1       2       3       4

Short lead over Riff A (played by bass):

g |-6---6~--6~--x-4~------------x---|-4/6-6~--6~--x-4~------------x---|
d |---------------------------------|--h------------------------------|
    1       2       3       4         1       2       3       4

g |-4/6-6~--6~--4-6*/7--\---6---x---|-4/6-6~--6~--x--b----r-----------|
d |--h--------------b---r-----------|--h------------4/5----\--4~------|
    1       2       3       4         1       2       3       4

Verse:

Riff A, bass only

    Crawled away from me, slipped away from me
    Tried to keep you home, but there was nothing I could say

Guitar enters, playing root notes with bass

    Slid away from me, crept away from me
    Tried to keep you down, but there was nothing I could say

Riff A, full blast

    What you're tryin' to say is you don't want to play
    What you want and what you need don't mean that much to me

Chorus:

Riff C (time sig. changes to 9/8 - watch out!)

g |-------2-----5-----4-----------------|
d |-4-----2-----5-----4-----------------|
a |-4-----0-----3-----2-----2-2-2-2-2-2-|  <- 1st and 3rd times, lift finger 
e |-2-----------------------------------|     slightly to get muffled harmonic
    1   2   3   4   5   6   7   8   9         sounds on single notes

    I     can   see   your
    Back  is    turn- ing
    If    I     could I'd 

   (time changes to 10/8 for last measure)
g |-------2-----5-----4---------------------|
d |-4-----2-----5-----4---------------------|
a |-4-----0-----3-----2-----2-2-2-2-2-2-2-2-|
e |-2---------------------------------------|
    1   2   3   4   5   6   7   8   9   10

    Stick a     knife in!


Bass plays Riff A again under this lead:

g |---------------------------------|---------------------------------|
d |---------------------------------|-2/4-4-2-4~--2-4---4---4~--------|
a |--h------------------------------|--h------------------------------|
e |-0/2-2-0-2~--0-2---2---2---0-2~--|---------------------------------|
    1       2       3       4         1       2       3       4

g |-9/11--9-11~-9-11--11--11--9-11~-|-9/11-11-11--9-11/12-\---11~-----|
d |--h------------------------------|--h--------------b---r-----------|
    1       2       3       4         1       2       3       4

Verse 2:

Bass plays Riff A

    Crawled away from me, slipped away from me
    Tried to keep you home, but there was nothing I could say

Bass plays Riff A, guitar plays the following variation:

g |---------------------------------|---------------------------------|
d |-----------------------------2/4-|-----------------------0-----0---|
a |--h----------------2---4~--4--h--|--h----------------2---0---------|
e |-0/2-2-0-2~--0-2-----------------|-0/2-2-0-2~--0-2-----------------|
    1       2       3       4         1       2       3       4

    Slid  away from me,               crept away from me

Then guitar and bass both play root notes as in first verse:

    Tried to keep you down, but there was nothing I could say

Riff A again, full blast:

    What you're tryin' to say is you don't want to play
    What you want and what you need don't mean that much to me

Chorus is played the same as before, fourth time Riff C leads into Riff D 
as follows:
                                         Riff D   repeat 4 times
g |-5-----4-------------------------|---------------------------------| 
d |-5-----4-------------------5-5---|-4-------------------------5-5---|
a |-3-----2-----2-2-2-2-2-2---5-5---|-4-------(pick scrape)-----5-5---|
e |-------------------------0-3-3-0-|-2-------( 4th time  )---0-3-3-0-|
    4   5   6   7   8   9   10  11    1       2       3       4
                                                  
                                              Is this love?  (2x)
                                              This is my love for you (2x)

Riff D, variation (measures stretched to accomodate the faster picking)

g |-----------------------------------------------------------------| 
d |-4---------------4---------------4-------------------5---5-------|
a |-4---------------4---------------2-------------------5---5-------|
e |-2-------x-x-x-x-2-------x-x-x-x-2-------x-x-x-x-0---3---3---0---|
    1               2               3               4

                    This    is      my      love    for     you  (3x)
                    This    is      my      love............

Switch to doubletime feel.  Bass and guitar play 16th notes on low F# for
six measures, then guitar switches to F# on D string 4th fret for next
two measures.  Next eight measures, bass stays on F# and guitar plays:

a |----|-4~-|-5~-|-2~-|-4~-|----|-----------------|-------b---r-----|
e |-2~-|----|----|----|----|-0~-|-0-2---0-2---0-2-|---0-2-/-3-\-2---|
                                  1   2   3   4     1   2   3   4

End doubletime feel
Riff A:
    Say   you   won't   go.....

Riff B  (actually, play last two measures of Riff B twice)
    (mumbled)  Won't go... won't go...  say it...

3rd "verse" - Bass plays Riff A once while guitar holds last F# of Riff B

Riff A, guitar plays root notes only:
    (Vocal rests first two measures)
    Get you in a strangle hold baby... Get it 'til you get it right

Riff A full blast once again:

    What you're tryin' to say is you don't want to play
    What you want and what you need don't make a fuck to me

Chorus - Riff C four times again, last time ends like this:

g |-------2-----5-----4-------------------------|---------|
d |-4-----2-----5-----4-------------------5-5---|-4-------|
a |-4-----0-----3-----2-----2-2-2-2-2-2---5-5---|-4-------|
e |-2-----------------------------------0-3-3-0-|-2-------|
    1   2   3   4   5   6   7   8   9   10  11


Disclaimer:  This may not be exactly the way Tool plays it.  It is, however,
             exactly the way I play it, for what that's worth.

_____________________________________________________________________________
6. Swamp Song
---
I couldn't find a guitar tab for this song on UG, but here is a link to a site that has it.....

http://www.fretplay.com/tabs/t/tool/swamp_song-tab.shtml

_____________________________________________________________________________
7. Undertow
---
Date: Wed, 23 Aug 2000 22:17:37 -0400
From: "Kurt B" 
Subject: t/tool/undertow.tab

Author/Artist: Tool
Title: Undertow
Album: Undertow
Transcribed by: Kurt
Email: prying0penmythirdeye@hotmail.com

Dropped D like All tool songs.
Good for me, i tabbed it.
I did a damn good job.
But if you can't tell some of the rhythm, sorry, i just
didn't want to write the words.

-------------|-------------|-------------------|------------------------------
-0h2/5-------|-------------|-------------------|------------------------------
-------0-00--|-------------|-------------------|------------------------------
-------------|-5/7/10-0-x0-|-------------------|------------------------------
-------------|-5/7/10-0-x0-|----------3-----6-5|0-0-5h7-0-10-0-13-12----------
-------------|-5/7/10-0-x0-|0-0-5h7-0---0-0----|0-0-5h7-0-10-0-13-12----------
Riff 1  4x    Riff 2  4x   Riff 3  2x          Riff 4   2x

-----------------------|-------------------|------------------|---------------
-----------------------|-------------------|----9-------------|----9----------
--------6-----9-----11-|-------------------|----9-------------|----9----------
-0-0-/7---/10---/12----|-----2-2-----------|2-x-7-x-10-x-7-777|2-x-7-x-10-x---
-----------------------|---------3-3-0-000-|2-x---x-10-x-7-777|2-x---x-10-x---
-----------------------|2-22---------------|2-------10-x-7-777|2-------10-x---
Riff 5  4x             Riff  6  4x         Riff 7  3x          Riff 7.1

-------|--------------------------|----------------------------|--------------
-------|--------------------------|----------------------------|--------------
-------|--------------------------|----------------------------|--------------
-5-555-|--------------------------|----------------------------|--------------
-5-555-|--------------------------|----------------------------|--------------
-5-555-|5-3-0-3-1-0-5-3-0-1-0-6-0-|5-3-0-3-1-0-5-3-0-1-0-3-0-6-|--------------
        Riff 8  1x                  Riff 9  1x                 then play

-----------------------------------------------------------|------------------
-----------------------------------------------------------|------------------
-----------------------------------------------------------|------------------
------------------------------------------------6--8--3--0-|------------------
------------------------------------------------6--8--3--0-|------------------
------------------------------------------------6--8--3--0-|------------------
Riff 8 and nine once more with this at the end.            then play

------------------------------------------------------------|-----------------
------------------------------------------------------------|-----------------
------------------------------------------------------------------------------
------------------------------------------------------------|-----------------
------------------------------------------------------------|-----------------
------------------------------------------------------------|-----------------
everything from the beginning, and  play Riff 7 4x. then

------------------------|--------------------|---------------------------|----
-5-x-17-x-13-x-10-10-10-|4-x-17-x-13-x-8-8-8-|---------------------------|----
-4-x-16-x-12-x-9--9--9--|5-x-16-x-12-x-7-7-7-|---------------------------|----
-2-x-14-x-10-x-7--7--7--|2-x-14-x-10-x-5-5-5-|---------------------------|----
------------------------|--------------------|5-3-0-3-1-0-5-3-0-1-0-6----|----
------------------------|--------------------|5-3-0-3-1-0-5-3-0-1-0-6----|----
  Riff 10  x3            Riff 10.1 1x        Riff 11. 1x

----------------------------|-------------------------------------------------
----------------------------|-------------------------------------------------
----------------------------|-------------------------------------------------
----------------------------|-------------------------------------------------
-5-3-0-3-1-0-5-3-0-1-0-3-0-6|-------------------------------------------------
-5-3-0-3-1-0-5-3-0-1-0-3-0-6|-------------------------------------------------
Riff 12  1x               play riff 11 and 12 one more time each.  then

-----------------------------|------------------------|-----------------------
-----------------------------|------------------------|-----------------------
-----------------------------|------------------------|-----------------------
-----------------------------|------------------------|-----------------------
-----------------------------|------------------------|-----------------------
-----------------------------|-5-3-0-3-1-0-5-3-0-xxxx-|-----------------------
play riff 8, 9, 8, 9, then this                      then play riff 8 again

----------|---------------------------------------------------------|---------
----------|---------------------------------------------------------|---------
----------|---------------------------------------------------------|---------
----------|---------------------------------------------------------|---------
----------|---------------------------------------------------------|---------
----------|-5-3-0-3-1-0-5-3-0--1--0--3--0--6--0--7--0--10--0--11--0-|---------
then this                 (slower)

---------------------------|--------------------------|-----------------------
---------------------------|--------------------------|-----------------------
---------------------------|--------------------------|-----------------------
---------------------------|-------------------6-7----|-----------------------
-5-8-x-x-------------------|-5-8-x-x-----------6-7----|-----------------------
---------5-8-0-3-3-0-xxxx--|---------5-6-5-3---6-7----|-----------------------
  Riff 13  1x                 Riff 14  1x         go to riff 15

---|------------------------|---------------------|---------------------------
---|------------------------|---------------------|---------------------------
---|------------------------|7/10-----------------|7/10-----------------------
---|------------------------|7/10-x-x-5/8-0-3-3-0-|7/10-x-x-5h6-0-3-3-0-------
---|------------------------|5/8--x-x-5/8-0-3-3-0-|5/8--x-x-5h6-0-3-3-0-------
---|------------------------|---------5/8-0-3-3-0-|---------5h6-0-3-3-0-------
                             Riff 15    1x         Riff 16  1x

---------------------|-----------------------|--------------------------------
---------------------|-----------------------|--------------------------------
---------------------|7/10-------------------|--------------------------------
---------------------|7/10-x-x-5h6-0-3--6--7-|--------------------------------
---------------------|5/8--x-x-5h6-0-3--6--7-|--------------------------------
---------------------|---------5h6-0-3--6--7-|--------------------------------
then play 15 once then                       then play 15 again-once

------|-----------------|--------------------------|--------------------------
------|-----------------|--------------------------|--------------------------
------|7/10-------------|--------------------------|--------------------------
------|7/10-x-x-5h6-0-3-|3--5-----7--10--11--12-15-|-3--6--7--10--11--12-15---
------|5/8--x-x-5h6-0-3-|3--5-----7--10--11--12-15-|-3--6--7--10--11--12-15---
------|---------5h6-0-3-|3--5-----7--10--11--12-15-|-3--6--7--10--11--12-15---
then this           (hold that three)              play this 2 times

------|-----------------|------------------------------|----------------------
------|-----------------|------------------------------|----------------------
------|-----------------|------------------------------|----------------------
------|-3--6--7--10--11-|--------------0-12-15---------|----------------------
------|-3--6--7--10--11-|------0-12-15---------0-12-15-|----------------------
------|-3--6--7--10--11-|12-15-------------------------|----------------------
then this                Riff 16  x 8

------------------------|-----------------------------------------------------
------------------------|-----------------------------------------------------
------------------------|-----------------------------------------------------
------------------------|-----------------------------------------------------
------------------------|-5-3-0-3-1-5-3-0-------------------------------------
--5-3-0-3-1-0-5-3-0-1-0-|-5-3-0-3-1-5-3-0-------------------------------------
then this three times       THE END!

_____________________________________________________________________________
8. 4 Degrees
---
Band : Tool
Album: Undertow
Song : 4
Tabbed by Nolan Venhola

----------------------------------------------------------------------------
Legend:

nh - natural harmonic
 ph - pinch harmonic
 
pm - palm mute
 x - muted string
 
h - hammer on
 p - pull off
 
\\ - slide down
 // - slide up
 
b - bend
 ~~ - vibrato
 
<7> - natural harmonic
 x/// - pick scrape (directions same as slide)
----------------------------------------------------------------------------

Hey, I saw there was no guitar tab for "4 degrees" here on UG,
so I found one that was good (in my opinion). Well, here it is: 

Tuning: drop D
Low to high: DADGBe
----------------------------------------------------------------------------


(clean)
                                                       x3
e---------------------------|-----------------------------
b--5--5-5-5--5-5-5-6-5-5-5--|--5(5)-5-5-5--5-5-5-6-5-5-5--
g--4--4-4-4--4-4-4-5-4-4-4--|--4(4)-4-4-4--4-4-4-5-4-4-4--
d--2------2--------3--------|--0h2------2--------3--------
a---------------------------|-----------------------------
d---------------------------|-----------------------------

e--------------------------------------------------------------------------
b--10-1010-8-/-13-x-8--8-8-x-6--6-6--6-66-/-10-1010-8-/-13-x-8--8-8-x-6----
g--9--9-9--7-/-12-x-7--7-7-x-5--5-5--5-55-/-9--9-9--7-/-12-x-7--7-7-x-5----
d--7--7-7--5-/-10-x-5--5-5-x-3--3-3--3-33-/-7--7-7--5-/-10-x-5--5-5-x-3----
a--------------------------------------------------------------------------
d--------------------------------------------------------------------------

(distortion)

e---------------------------------------------
b---------------------------------------------
g---------------------------------------------
d----------------------------------------3---- x2
a--0h2-x-x-0h2-xxx-33-0--0h2-x-x-0h2-xxx-3----
d--0h2-x-x-0h2-xxx-33-0--0h2-x-x-0h2-xxx-3----
                   pm-|

                      x3
e------------------------|-------------------------------
b------------------------|-------------------------------
g------------------------|-------------------------------
d------------------------|-------------------------------
a------------------------|-------------------------------
d--0h2-x-x-0h2-xxx-33-0--|--0h2-x-x-0h2-2-x-2-/-10-b-----
  pm - - - - - - - - - |   pm - - - - |

e---------------------------------------------
b---------------------------------------------
g---------------------------------------------
d----------------------------------------3---- x2
a--0h2-x-x-0h2-xxx-33-0--0h2-x-x-0h2-xxx-3----
d--0h2-x-x-0h2-xxx-33-0--0h2-x-x-0h2-xxx-3----
                   pm-|

                      x3
e------------------------|----------------------------------
b------------------------|----------------------------------
g------------------------|----------------------------------
d------------------------|----------------------------------
a------------------------|----------------------------------
d--0h2-x-x-0h2-xxx-33-0--|--0h2-x-x-0h2-2-x-0h2p0-3p0-2p0---
  pm - - - - - - - - - |   pm - - - - | ph - - - - - - - |

                         x3
e---------------------------|--------------------
b------55-5-----------------|------55-5-5-5-5-/--
g------44-4-----------------|------44-4-4-4-4-/--
d--0h2-22-2-----------------|--0h2-22-2-2-2-2-/--
a--0h2-22-2-----------------|--0h2-22-2-2-2-2-/--
d--0h2-22-2--0h2p0-3p0-2p0--|--0h2-22-2-2-2-2-/--
            ph - - - - - -|

e------------------------------------------
b--10-1010-8-/-13-x-8--8-8-x-6--6-6--6-66--
g--9--9-9--7-/-12-x-7--7-7-x-5--5-5--5-55--
d--7--7-7--5-/-10-x-5--5-5-x-3--3-3--3-33-- x3
a--7--7-7--5-/-10-x-5--5-5-x-3--3-3--3-33--
d--7--7-7--5-/-10-x-5--5-5-x-3--3-3--3-33--

                           x3
e-----------------------------|-------------------------
b--5(5)-5-5-5--5-5-5-6\5-5-5--|--5(5)-5-5-5--5-5-5-6----
g--4(4)-4-4-4--4-4-4-5\4-4-4--|--4(4)-4-4-4--4-4-4-5----
d--0h2--2-2-2--2-2-2-3\2-2-2--|--0h2--2-2-2--2-2-2-3----
a--0h2--2-2-2--2-2-2-3\2-2-2--|--0h2--2-2-2--2-2-2-3----
d--0h2--2-2-2--2-2-2-3\2-2-2--|--0h2--2-2-2--2-2-2-3----

                      x3
e------------------------|----------------------------------
b------------------------|----------------------------------
g------------------------|----------------------------------
d------------------------|----------------------------------
a------------------------|----------------------------------
d--0h2-x-x-0h2-xxx-33-0--|--0h2-x-x-0h2-2-x-0h2p0-3p0-2p0---
  pm - - - - - - - - - |   pm - - - - | ph - - - - - - - |

                         x3
e---------------------------|--------------------
b------55-5-----------------|------55-5-5-5-5-/--
g------44-4-----------------|------44-4-4-4-4-/--
d--0h2-22-2-----------------|--0h2-22-2-2-2-2-/--
a--0h2-22-2-----------------|--0h2-22-2-2-2-2-/--
d--0h2-22-2--0h2p0-3p0-2p0--|--0h2-22-2-2-2-2-/--
            ph - - - - - -|

e------------------------------------------
b--10-1010-8-/-13-x-8--8-8-x-6--6-6--6-66--
g--9--9-9--7-/-12-x-7--7-7-x-5--5-5--5-55--
d--7--7-7--5-/-10-x-5--5-5-x-3--3-3--3-33-- x3
a--7--7-7--5-/-10-x-5--5-5-x-3--3-3--3-33--
d--7--7-7--5-/-10-x-5--5-5-x-3--3-3--3-33--

                           x3
e-----------------------------|-------------------------
b--5(5)-5-5-5--5-5-5-6\5-5-5--|--5(5)-5-5-5--5-5-5-6----
g--4(4)-4-4-4--4-4-4-5\4-4-4--|--4(4)-4-4-4--4-4-4-5----
d--0h2--2-2-2--2-2-2-3\2-2-2--|--0h2--2-2-2--2-2-2-3----
a--0h2--2-2-2--2-2-2-3\2-2-2--|--0h2--2-2-2--2-2-2-3----
d--0h2--2-2-2--2-2-2-3\2-2-2--|--0h2--2-2-2--2-2-2-3----

e-------------------------------------------------------------------
b-------------------------------------------------------------------
g-------------------------------------------------------------------
d--12--12-12-12--8--8--8-8-8-8--17--17-17-17--15--15--15-15-15-15---
a--12--12-12-12--8--8--8-8-8-8--17--17-17-17--15--15--15-15-15-15---
d--12--12-12-12--8--8--8-8-8-8--17--17-17-17--15--15--15-15-15-15---

e---------------------------------------------------
b---------------------------------------------------
g---------------------------------------------------
d--12--12-12-12--8--8--8-8-8-8--17--17-17-17--15----
a--12--12-12-12--8--8--8-8-8-8--17--17-17-17--15----
d--12--12-12-12--8--8--8-8-8-8--17--17-17-17--15----

e---------------------------------------------
b---------------------------------------------
g---------------------------------------------
d----------------------------------------3---- x2
a--0h2-x-x-0h2-xxx-33-0--0h2-x-x-0h2-xxx-3----
d--0h2-x-x-0h2-xxx-33-0--0h2-x-x-0h2-xxx-3----
                   pm-|

e-----------------------------
b--5(5)-5-5-5--5-5-5-6\5-5-5--
g--4(4)-4-4-4--4-4-4-5\4-4-4--
d--0h2--2-2-2--2-2-2-3\2-2-2-- x4
a--0h2--2-2-2--2-2-2-3\2-2-2--
d--0h2--2-2-2--2-2-2-3\2-2-2--

e------------------------------------------
b--10-1010-8-/-13-x-8--8-8-x-6--6-6--6-66--
g--9--9-9--7-/-12-x-7--7-7-x-5--5-5--5-55--
d--7--7-7--5-/-10-x-5--5-5-x-3--3-3--3-33-- x3
a--7--7-7--5-/-10-x-5--5-5-x-3--3-3--3-33--
d--7--7-7--5-/-10-x-5--5-5-x-3--3-3--3-33--

e--------------------------
b--------------------------
g-----------------11-------
d--2-----2/9--12--11------- x3
a--2-----2/9--12--9---9p0--
d--2-----2/9--12--9---9p0--

e-------------------------------
b-------------------------------
g-------------------------------
d--9--------------9-------------
a--7--------------7-------------
d--7--------------7-------------

e--------------------------------------
b--------------------------------------
g--------------------------------------
d--2--2-x-2--------2--2-x-2-------3----
a--2--2-x-2--------2--2-x-2-------3----
d--2--2-x-2--------2--2-x-2-------3----

e--------------------------------------
b--------------------------------------
g--------------------------------------
d--2--2-x-2--------2--2-x-2--x-xx-3----
a--2--2-x-2--------2--2-x-2--x-xx-3----
d--2--2-x-2--------2--2-x-2--x-xx-3----

e------------------------
b--5--5-55--/-18-18-18---
g--4--4-44--/-17-17-17---
d--2--2-22--/-15-15-15--- x8
a--2--2-22--/-15-15-15---
d--2--2-22--/-15-15-15---

(notes in parenthesis are sounded by fret hand tapping)

e---------------------------------------------------------
b---------------------------------------------------------
g---------------------------------------------------------
d--------------------------------------------------------- x2
a---------------------------------------------------------
d--0h2-(0h2-0h2)-0h2-xxx-33-0--0h2-(0h2-0h2)-0h2-xxx-3----
                         pm-|

e------------------------------
b------------------------------
g------------------------------
d------------------------------ x4
a------------------------------
d--0h2-(0h2-0h2)-0h2-xxx-33-0--
                 pm - - - - -|

(let off pm slowly over last bar)
e-----------------------------
b-----------------------------
g-----------------------------
d----------------------------- x4
a-----------------------------
d--0h2-0-2-0-2--0h2-xxx-33-0--
  pm - - - - - - - - - - - -|

e------------------------------------------
b--10-1010-8-/-13-x-8--8-8-x-6--6-6--6-66--
g--9--9-9--7-/-12-x-7--7-7-x-5--5-5--5-55--
d--7--7-7--5-/-10-x-5--5-5-x-3--3-3--3-33-- x3
a--7--7-7--5-/-10-x-5--5-5-x-3--3-3--3-33--
d--7--7-7--5-/-10-x-5--5-5-x-3--3-3--3-33--

solo

e-------------------------------------------------------------------
b-------------------------------------------------10----------------
g------------------------------------------9-9h10----9-9h10-10------
d-------7---------7--7--------7----12-10-----------------------10---
a--8h10---10-8h10------8-8h10---10----------------------------------
d-------------------------------------------------------------------

e------------------------------------------------------------
b------------------------------------------------------------
g-----9h10-9-------------------------------------------------
d--10--------10-9p7----------------/12-12--12-12--10b--\\----
a-------------------10p9p8--/7--7----------------------------
d------------------------------------------------------------

*rest for two bars*

(volume off)

e----------------------------------
b----------------------------------
g----------------------------------
d--2-------------------------------
a--2---(volume swell)--(feedback)--
d--2-------------------------------

e------------------------------------------------------
b------------------------------------------------------
g------------------------------------------------------
d--xx---xx---xxx--2-2-3-----3-2---3-2---3-2-2--2---3b--
a--xx---xx---xxx--2-2-3-----3-2---3-2---3-2-2--2---3b--
d--xx---xx---xxx--2-2-3-----3-2---3-2---3-2-2--2---3b--

e----------------------------------------------
b----------------------------------------------
g----------------------------------------------
d--xx---xx---xxx--2-2-3-----3-2---3-2---3-2-2--
a--xx---xx---xxx--2-2-3-----3-2---3-2---3-2-2--
d--xx---xx---xxx--2-2-3-----3-2---3-2---3-2-2--

e-----------------------------------------------
b------------------------------6-------------b--
g------------------------------5-------------b--
d--2--2--2----2--2--2----2--2--3--(feedback)----
a--2--2--2----2--2--2----2--2--3----------------
d--2--2--2----2--2--2----2--2--3----------------

_____________________________________________________________________________
9. Flood
---
Flood Tab by Tool, www.Ultimate-Guitar.Com

#----------------------------------PLEASE NOTE---------------------------------#
#This file is the author's own work and represents their interpretation of the #
#song. You may only use this file for private study, scholarship, or research. #
#------------------------------------------------------------------------------##
"Flood" - by Tool

One of the best songs on "Undertow", it often gets overlooked beacuse
of its long opening. As with lots of Tool songs, it's Drop D tuned. 

Bear with me. My rhythem ain't so good

/ = slide up
\ = slide down
~ = bend

Opening:       (slowly)
low D: -0--0--6--6-6----6/////////12--12

Opening Part Riff:
d -5--5-6-6-6-6-0-3-3-3-2-0-0-0   muted   2-3------0
A -5--5-6-6-6-6-0-3-3-3-2-0-0-0    then   2-3------0
D -5--5-6-6-6-6-0-3-3-3-2-0-0-0   slowly  2-3------0
                                  lowder
When Opening Part Riff is repeated:
d -5--5-6-6-6-6-0-3-3-3-2-0-0-0-6  |
A -5--5-6-6-6-6-0-3-3-3-2-0-0-0-6 :|   rinse and repeat
D -5--5-6-6-6-6-0-3-3-3-2-0-0-0-6  |

Main Part Riff (single string):
A -3-5-6-5-0-3-5-0-6-5-0-3-0  :|    rinse and repeat

Main Part Riff (chords):
D -3-5-6-5-0-3-5-0-6-5-0-3-0  :|
A -3-5-6-5-0-3-5-0-6-5-0-3-0  :|    rinse and repeat
D -3-5-6-5-0-3-5-0-6-5-0-3-0  :|

When Maynard says "This ground is not the rock I thought it would be", you play:

d -3---3---3---3---0-0--0-0--0-0--0-0
A -3---3---3---3---0-0--0-0--0-0--0-0
D -3---3---3---3---0-0--0-0--0-0--0-0

When he says "I was wrong. This changes everything", you play:

d -5----------0               0
A -5-let ring-0 "I was wrong" 0 "This..."
D -5----------0               0

                                bend and slowly release
d -0/////////////10----9-10-12------12~~~~~~~

d -13-12--10-12--13-12--10--10-12-13-12--17-15--15\\\\\\\\\\\\\\\\\\\3

I'm not sure which notes to play for the "Runnin' away" part. Sorry. 

Be careful to listen for variations when they don't play the
open note. For example, they play:

A -3-5-6-5---3-5---6-5---3--  :|    you know the drill

Ending Riff:
d -0--0--0--6--0--5--0--8--0-1-2-3
A -0--0--0--6--0--5--0--8--0-1-2-3
D -0--0--0--6--0--5--0--8--0-1-2-3

d -0--0--0--6--0--5--0--8--0-3-4-2
A -0--0--0--6--0--5--0--8--0-3-4-2
D -0--0--0--6--0--5--0--8--0-3-4-2

d -0--0--0--6--0--5--0--8--0-1-2-3
A -0--0--0--6--0--5--0--8--0-1-2-3
D -0--0--0--6--0--5--0--8--0-1-2-3

d -0--0--0--6--0--5--0--8--0-33333
A -0--0--0--6--0--5--0--8--0-33333   <----- strum really fast here
D -0--0--0--6--0--5--0--8--0-33333              at the 3's

Final Part:
d -3---3---3---5-6-5 :|
A -3---3---3---5-6-5 :|      repeat 4 times, then
D -3---3---3---5-6-5 :|

D -3-0-0-3-0-0-3-0-0
A -3-0-0-3-0-0-3-0-0
D -3-0-0-3-0-0-3-0-0

This is my first TAB, so if you have any suggestions or if I totally messed
this up, mail me at             BKOHARSKI@AOL.COM

_____________________________________________________________________________
10. Disgustipated
---
(couldn't find a guitar tab for this anywhere...)
_____________________________________________________________________________
Comments