Tool - Triad Chords & Tabs

 

Triad Chords & Tabs

Tool Chords & Tabs

Version: 1 Type: Tab 0 ratings
1 star 2 stars 3 stars 4 stars 5 stars
comments

Triad Tab

   
tabed by:$GUITARPRODIGY$

artist:tool
song title: Triad
album:lateralus
2001 volcano records
track:#11

tuning: (d,a,d,e,b,g) drop-d everybody!

~~~~~~~~~~~~~~~~~~~~~~~~~~~~~~~~~~~~~~~~~~~~~~~~~~~~~~~~~~~~~~~~~~~~~~~~~~~~~~~
                                T ~R ~I ~A ~D

intro:

e:----------------------------------------------------------------
b:----------------------------------------------------------------
g:----------------------------------------------------------------
d:-2-2--2-2--2-2-------------2-2--2-2--2-2------------------------ 
a:-2-2--2-2--2-2-------------2-2--2-2--2-2------------------------
d:-2-2--2-2--2-2-2h3-2p0h2---2-2--2-2--2-2--2h3-2h3-2p0h2---------

repeat this riff for about 1:20/or less.

begining of solo:

e:-----------------------------------------------------------------------------
b:-----------------------------------------------------------------------------
g:-----------------------------------------------------------------------------
d:-----------------------------------------------------------------------------
a:-----------------------------------------------------------------------------
d://///////////////////////////////////////////////////////////////////////////

use a wah & also use your pick to slide down the e-string with!

e:-----------------------------------------------------------------------------
b:-----------------------------------------------------------------------------
g:-----------------------------------------------------------------------------
d:-----------------------------------------------------------------------------
a:-----------------------------------------------------------------------------
d:\\\\\\\\\\\\\\\\\\\\\\\\\\\\\\\\\\\\\\\\\\\\\\\\\\\\\\\\\\\\\\\\\\\\\\\\\\\\\

It took me a while to figure out weather or not this intro to the solo is
pick sliding but it is,and it sounds totally bitch'n when played with a wah
and some heavy distortion.

e:-----------------------------------------------------------------------------
b:-12-12-10-11/9/7/5***-----3h5--3h5-3~~~-----12-10-11--7h9-7h8-7-7/5----------
g:-----------------------------------------------------------------------------
d:-----------------------------------------------------------------------------
a:-----------------------------------------------------------------------------
d:-----------------------------------------------------------------------------

e:-----------------------------------------------------------------------------
b:-----------------------------------------------------------------------------
g:-----------------------------------------------------------------------------
d:-----------------------------------------------------------------------------
a:-----------------------------------------------------------------------------
d:\\\\\\\\\\\\\\\\\\\\\\\\\\\\\\\\\\\\\\\\\\\\\\\\\\\\\\\\\\\\\\\\\\\\\\\\\0-2-
pick slide up.

wait about 8 secounds...

e:-----------------------------------------------------------------------------
b:-----------------------------------------------------------------------------
g:-----------------------------------------------------------------------------
d:-----------------------------------------------------------------------------
a:-----------------------------------------------------------------------------
d://///////////////////////\\\\\\\\\\\\\\\\\\\\\\\\\\\\\\\\\\\\\\\\\\\\\\\\\\\\
  pick slide                                                       let it ring!
  >>>>>>>>>>>>>>>>>down>>> <<<<<<<<<<<<<<<<<<<<<<<<<<<<<<<<[ Tab from: http://www.guitartabs.cc/tabs/t/tool/triad_tab.html ]
Start this when the drums bang in real loud!!!
e:-----------------------------------------------------------------------------
b:-----------------------------------------------------------------------------
g:-----------------------------------------------------------------------------
d:-2-2-5--2-2--2-2--2-2--2-2--2-2--2-2--2-2--2-2--555/777--2-2-----------------
a:-2-2-5--2-2--2-2--2-2--2-2--2-2--2-2--2-2--2-2--555/777--2-2-----------------
d:-2-2-3--2-2--2-2--2-2--2-2--2-2--2-2--2-2--2-2--333/555--2-2---2h3-2p0h2-----

e:-----------------------------------------------------------------------------
b:-----------------------------------------------------------------------------
g:-----------------------------------------------------------------------------
d:-777\555--2-2------------777\555--2-2------------555\777---------------------
a:-777\555--2-2------------777\555--2-2------------555\777---------------------
d:-555\333--2-2--2h3-2p0h2-555\333--2-2--2h3-2p0h2-333\555--2-2h3-2h3-2-2h3-2h3

e:------------------------------------------------------------------------
b:------------------------------------------------------------------------
g:------------------------------------------------------------------------ 4x
d:------------------------------------------------------------------------
a:------------------------------------------------------------------------
d:-2-2h3-2h3--2-2h3-2h3--2-2h3-2h3--2-2h3-2h3--2-2h3-2h3--2-2h3-2h3-------


e:-----------------------------------------------------------------------------
b:-----------------------------------------------------------------------------
g:-----------------------------------------------------------------------------
d:-----------------------------------------------------------------------------
a:-----------------------------------------------------------------------------
d:-2-2-2-2h3-2h3--2-2-2-2h3-2h3--2-2-2-2h3-2h3--2-2-2-2h3-2h3--2-2-2-2h3-2h3---
P.M............................................................................
play this until the drums start to kick in heavilly.


e:-----------------------------------------------------------
b:-----------------------------------------------------------
g:-----------------------------------------------------------
d:-2-2--2-2--2-2------------2-2--2-2--2-2-------------------- 5x
a:-2-2--2-2--2-2------------2-2--2-2--2-2--------------------
d:-2-2--2-2--2-2-2h3-2p0h3--2-2--2-2--2-2-2h3-2h3-2p0h3------

e:-------------------------------------------------------------------------
b:-------------------------------------------------------------------------
g:-------------------------------------------------------------------------
d:-555/777--2-2------------777/555--2-2------------777/555--2-2------------ 3x
a:-555/777--2-2------------777/555--2-2------------777/555--2-2------------
d:-333/555--2-2-2h3-2p0h3--555/333--2-2-2h3-2p0h3--555/333--2-2-2h3-2p0h3--

e:-----------------------------------------------------------------------------
b:-----------------------------------------------------------------------------
g:-----------------------------------------------------------------------------
d:-555/777---------------------------------------------------------------------
a:-555/777---------------------------------------------------------------------
d:-333/555--2~~~2~~~2~~~2~~~---222-333-2-3-2-3--222-333-2-3-2-3-222-333-2-3-2-3
           use wah.........    turn off wah....................................

e:----------------------------------------------------------------------------
b:----------------------------------------------------------------------------
g:----------------------------------------------------------------------------
d:----------------------------------------------------------------------------
a:----------------------------------------------------------------------------
d:-222-333-2-3-2-3--222-333-2-3-2-3-2-3-2-3-2-3-2-3--2-3-2-3-2-3-2-3-2-3-2-3--
                           P.M....................   use wah...................

e:-----------------------------------------------------------------------------
b:-----------------------------------------------------------------------------
g:-----------------------------------------------------------------------------
d:--------------------------------------2--------------------------------------
a:--------------------------------------2--------------------------------------
d:-3-2-3-2-3-2-3-2-3-2-3-2-3-2-3-2-3-2--2--------------------------------------
......................................

I remeber geting home and playing this song and something in it 
just did'nt sound right,so I now took the time to correct some of the
timeing,techniques,leads,and just lots of errors I made while typeing
out and writting this tab.I could honestly say now that this tab is 100%
correct in every form.If anyone has any songs they would like to learn or
any questions reguarding this tab or TOOL E-MAIL me at senorjacob@msn.com


For all the tool lovers reading this bueatiful tab just to let ya'll know 
that I know more about this band than any other guy my age i've studied and
listened to the band for years so come to me first if you need any questions
of this band answered or go to this website www.INNUENDOCORNECOPRIA.com
                                              (sagacious inerpretations)
Besides from that have a great time with this
bad ass six min.long metal solo...
Comments