Tool - The Patient Chords & Tabs

 

The Patient Chords & Tabs

Tool Chords & Tabs

Version: 2 Type: Tab 0 ratings
1 star 2 stars 3 stars 4 stars 5 stars
comments

The Patient Tab

Tool, The Patient.
Tabbed by John, guitar_guy42986@yahoo.com.
  
hey, this song is by Tool off of their new cd
Lateralus.  it's a really good song I might add.  
Adam Jones plays it on a Gibson Les Paul, so that's
where you hear the smoothness of it's sound.  well,
anyway, here's the tab.  this is just the verse and
the chorus.  I don't know the bridge.  sorry.it's not
that hard to learn.

Intro/verse (not the song before it, just what's
played on track 3)  all of this is palm muted.
-----------------------------------------------------
-----------------------------------------------------
-----------------------------------------------------
-----4-----4----4---4-----4-----4----4---4-----------
---2-----2--------------2-----2----------------------
-3-----0-----5---2----3-----0-----5---2--------------
[ Tab from: http://www.guitartabs.cc/tabs/t/tool/the_patient_tab_ver_2.html ]
This next part is played over what's already going on.
Adam uses a wah wah here.  V means pull wah pedal up
with your heal,^ means push it down with your toes.
>means let ring.
-----------------------------------
-----------------------------------
-----------2--------------4---2----
---4---2------4---4---2------------
-----------------------------------
-----------------------------------
   >^  ^   ^  V   >^  ^   ^   ^

repeat until:
----------------------------------------------------
----------------------------------------------------
----------------------------------------------------
---------4-----------4------------------------------
---2--------5---2--------5--------------------------
------3------------3--------------------------------

then start the verse again.


Chorus:  (x means palm mute these notes)
----------------------------------------------------
----------------------------------------------------
---------------------------------------------------
--5----2----7----9-------4-5-4-2-------------------
--5----2----7----9-------4-5-4-2-------------------
--3----0----5----7-------2-3-2-0-------------------
                         x x x x

---------------------------------------------------
-----8------11------------------8------11----------
-----------------10------------------------10------
---------------------------------------------------
---------------------------------------------------
---------------------------------------------------

That's it. 
:: Ultimate Guitar Archive :: 
http://www.ultimate-guitar.com 

Comments