Tool - The Patient Chords & Tabs

 

The Patient Chords & Tabs

Tool Chords & Tabs

Version: 1 Type: Tab 2 ratings
1 star 2 stars 3 stars 4 stars 5 stars
comments

The Patient Tab

The patient by tool
Tabbed by Beau welch(lyvvewire@yahoo.com)

This is the closest i can get to tools song the patient.

here we go...


Drop D tuning.

Palm mute and i usually turn down my lows and mids on my amp..
for optimal sound
|-------------------------------------------------------------------|
|-------------------------------------------------------------------|
|-------------------------------------------------------------------|
|--------0--2------0--2------2-------2------------------------------|
|-------------------------3-------0---------------------------------|
|---3----------0----------------------------------------------------|
This is the opening intro above: repeat im not sure how many times.


[ Tab from: http://www.guitartabs.cc/tabs/t/tool/the_patient_tab.html ]
Here is the fill with the wah wah pedal on a second guitar
|-------------------------------------------------------------------|
|-------------------------------------------------------------------|
|----------------0------------------1-------------------------------|
|-----2h3--0--------2-2h3-----0--------2----------------------------|
|-------------------------------------------2h3--0------------------|
|-------------------------------------------------------------------|
Repeat....

I will submit more later...get the timing right by listening to the song
and following along ...this is the correct tab....remember to palm
mute everything.

any questions comments...cheapshots email me at lyvvewire@yahoo.com

thanks,






Comments