Tool - Sweat Chords & Tabs

 

Sweat Chords & Tabs

Tool Chords & Tabs

Version: 2 Type: Bass Tab 0 ratings
1 star 2 stars 3 stars 4 stars 5 stars
comments

Sweat Bass Tab

   
#----------------------------------PLEASE NOTE---------------------------------#
#This file is the author's own work and represents their interpretation of the #
#song. You may only use this file for private study, scholarship, or research. #
#------------------------------------------------------------------------------##

                                SWEAT (Bassline)
                               As recorded by Tool
                          (From the 1992 Album OPIATE)

Words and Music by Tool


Gtr I (D A D G) - 'Untitled'

 Intro
  Q=160
  EbD5EbF5GbF5D5  EbD5EbF5GbF5D5  EbD5EbF5GbF5D5  EbD5C F5GbF5D5
 7/8
  Gtr I
  E E E E E E E   E E E E E E E   E E E E E E E   E E E E E E E
|---------------|---------------|---------------|----------------|
|---------------|---------------|---------------|----------------|
|---------------|---------------|---------------|----------------|
|-1-0-1-3-4-3-0-|-1-0-1-3-4-3-0-|-1-0-1-3-4-3-0-|-1-0-1-3-4-3-0--|


  Eb5                  D5     EbD5       Dsus2
 4/4                2/4      5/8        4/4
        |-3-|
  E E E E E E E Q    E E Q    E E E Q     W
|------------------|--------|----------|-14----||
|------------------|--------|----------|-12----||
|------------------|--------|----------|--0----||
|-1-----1-1-1-1----|-1-0----|-1-0-0----|-------||


  E5 D5EbD5E5     D5F5D5E5     D5EbD5E5     D5F5D5E5
 6/8
  Q  E E E E   Q  E E E E   Q  E E E E   Q  E E E E
|------------|------------|------------|------------|
|------------|------------|------------|------------|
|------------|------------|------------|------------|
|-2--0-1-0-2-|-2--0-3-0-2-|-2--0-1-0-2-|-2--0-3-0-2-|


  E5 D5EbD5E5     D5F5D5E5     D5G5D5    G5A5  G5E5
                                        2/4
  Q  E E E E   Q  E E E E   Q  E E E E   E E E E
|------------|------------|------------|-----------||
|------------|------------|------------|-----------||
|------------|------------|------------|-----------||
|-2--0-1-0-2-|-2--0-3-0-2-|-2--0-5-0-0-|-5s7-7s5---||


   Verse
    E5 D5EbD5E5     D5F5D5E5     D5EbD5E5     D5F5D5E5
   6/8
    Q  E E E E   Q  E E E E   Q  E E E E   Q  E E E E
||-------------|------------|------------|------------|
||o------------|------------|------------|------------|
||o------------|------------|------------|------------|
||--2--0-1-0-2-|-2--0-3-0-2-|-2--0-1-0-2-|-2--0-3-0-2-|


  E5 D5EbD5E5     D5F5D5E5     D5G5D5    G5A5  G5E5
                                        2/4
  Q  E E E E   Q  E E E E   Q  E E E E   E E E E
|------------|------------|------------|-----------|
|------------|------------|------------|-----------|
|------------|------------|------------|-----------|
|-2--0-1-0-2-|-2--0-3-0-2-|-2--0-5-0-0-|-5s7-7s5---|


  E5 D5EbD5E5     D5F5D5E5     D5EbD5E5     D5F5D5E5
 6/8
  Q  E E E E   Q  E E E E   Q  E E E E   Q  E E E E
|------------|------------|------------|------------|
|------------|------------|------------|------------|
|------------|------------|------------|------------|
|-2--0-1-0-2-|-2--0-3-0-2-|-2--0-1-0-2-|-2--0-3-0-2-|


  E5 D5EbD5E5     D5F5D5E5     D5G5D5    G5A5  G5E5
                                        2/4
  Q  E E E E   Q  E E E E   Q  E E E E   E E E E
|------------|------------|------------|-----------||
|------------|------------|------------|-----------||
|------------|------------|------------|-----------||
|-2--0-1-0-2-|-2--0-3-0-2-|-2--0-5-0-0-|-5s7-7s5---||


 Pre-Chorus
  $
  E5 D5E5D5    E5 D5G5       A5  G5
 6/8                      2/4
  Q  E E E E   Q  E Q  E   E E E E
|------------|-----------|---------|
|------------|-----------|---------|
|------------|-----------|---------|
|-2--0-2-0-0-|-2--0-5--5-|-5s7-7s5-|


  E5 D5E5D5    E5 D5G5       A5  G5
 6/8                      2/4
  Q  E E E E   Q  E Q  E   E E E E
|------------|-----------|---------|
|------------|-----------|---------|
|------------|-----------|---------|
|-2--0-2-0-0-|-2--0-5--5-|-5s7-7s5-|


  E5 D5E5D5    E5 D5G5       A5  G5
 6/8                      2/4
  Q  E E E E   Q  E Q  E   E E E E
|------------|-----------|---------|
|------------|-----------|---------|
|------------|-----------|---------|
|-2--0-2-0-0-|-2--0-5--5-|-5s7-7s5-|


  E5 D5E5D5    E5 D5G5       A5
 6/8                      2/4
  Q  E E E E   Q  E Q  E   E E Q
|------------|-----------|--------||
|------------|-----------|--------||
|------------|-----------|--------||
|-2--0-2-0-0-|-2--0-5--5-|-5s7-7--||


 Chorus
                                                                    To Coda
  (Dm)
 6/8                          2/4       6/8                         2/4
  E E E E E E   E E E  E E E   E E E E   E E E E E E   E E E E E E   E E E E
|-7-----7-----|-7-----10-----|-9---9---|-7-----7-----|-7-----5-----|-5---5----|
|---0-0---0-0-|---0-0----0-0-|---0---0-|---0-0---0-0-|---0-0---0-0-|---0---0--|
|-------------|--------------|---------|-------------|-------------|----------|
|-------------|--------------|---------|-------------|-------------|----------|


  1.
  (Dm)
 6/8                          2/4
  E E E E E E   E E E  E E E   E E E E
|-7-----7-----|-7-----10-----|-9---9---|
|---0-0---0-0-|---0-0----0-0-|---0---0-|
|-------------|--------------|---------|
|-------------|--------------|---------|


 6/8                         2/4
  E E E E E E   Q.    Q   E   Q   Q
|-7-----7-----|-7----11--11-|-5---------||
|---0-0---0-0-|-0-----0---0-|-0--------o||
|-------------|-------------|----------o||
|-------------|-------------|----12\----||

[ Tab from: http://www.guitartabs.cc/tabs/t/tool/sweat_btab_ver_2.html ]
  2.
  (Dm)
 6/8                          2/4       6/8                         2/4
  E E E E E E   E E E  E E E   E E E E   E E E E E E   E E E E E E   E E E E
|-7-----7-----|-7-----10-----|-9---9---|-7-----7-----|-7-----5-----|-5---5----|
|---0-0---0-0-|---0-0----0-0-|---0---0-|---0-0---0-0-|---0-0---0-0-|---0---0--|
|-------------|--------------|---------|-------------|-------------|----------|
|-------------|--------------|---------|-------------|-------------|----------|


 6/8                          2/4       6/8                         2/4
  E E E E E E   E E E  E E E   E E E E   E E E E E E   E E E E E E   E E E E
|-7-----7-----|-7-----10-----|-9---9---|-7-----7-----|-7-----5-----|-5---5----|
|---0-0---0-0-|---0-0----0-0-|---0---0-|---0-0---0-0-|---0-0---0-0-|---0---0--|
|-------------|--------------|---------|-------------|-------------|----------|
|-------------|--------------|---------|-------------|-------------|----------|


 6/8                          2/4       6/8                         2/4
  E E E E E E   E E E  E E E   E E E E   E E E E E E   Q.    Q   E   Q   Q
|-7-----7-----|-7-----10-----|-9---9---|-7-----7-----|-7----11--11-|-5--------||
|---0-0---0-0-|---0-0----0-0-|---0---0-|---0-0---0-0-|-0-----0---0-|-0--------||
|-------------|--------------|---------|-------------|-------------|----------||
|-------------|--------------|---------|-------------|-------------|----12\---||


 Bridge
 4/4                                    6/8
  Q  Q  H      Q  Q  H      Q  Q  H      Q  E Q  E
|------------|------------|------------|------------|
|------------|------------|------------|------------|
|------------|------------|------------|------------|
|-2----------|-2----------|-2----------|-3--0-1--0--|


   4/4
    Q  S S S S S S S S S S S S
||-----------------------------|
||o----------------------------|
||o----------------------------|
||--2--2-2-2-2-2-2-2-2-2-2-2-2-|


  Q  S S S S S S S S S S S S   Q  S S S S S S S S S S S S
|----------------------------|----------------------------|
|----------------------------|----------------------------|
|----------------------------|----------------------------|
|-2--2-2-2-2-2-2-2-2-2-2-2-2-|-2--2-2-2-2-2-2-2-2-2-2-2-2-|


 6/8         4/4
  Q  E Q  E   Q  S S S S S S S S S S S S   Q  S S S S S S S S S S S S
|-----------|----------------------------|----------------------------|
|-----------|----------------------------|----------------------------|
|-----------|----------------------------|----------------------------|
|-3--0-1--0-|-2--2-2-2-2-2-2-2-2-2-2-2-2-|-2--2-2-2-2-2-2-2-2-2-2-2-2-|


                              6/8          7/8
  Q  S S S S S S S S S S S S   Q  E Q  E    E E E E E E E
|----------------------------|-----------||---------------|
|----------------------------|-----------||---------------|
|----------------------------|-----------||---------------|
|-2--2-2-2-2-2-2-2-2-2-2-2-2-|-3--0-1--0-||-1-0-1-3-4-3-0-|


                                                            D.S. al Coda
                                                   5/4
                                                          |-3-|
  E E E E E E E   E E E E E E E   E E E E E E E     E E E E E E E  Q    Q
|---------------|---------------|----------------||--------------------------||
|---------------|---------------|---------------o||--------------------------||
|---------------|---------------|---------------o||--------------------------||
|-1-0-1-3-4-3-0-|-1-0-1-3-4-3-0-|-1-0-1-3-4-3-0--||-1-----1-1-1-1-(1)/--8\---||


  &
  (Dm)
 6/8                          2/4       6/8                         2/4
  E E E E E E   E E E  E E E   E E E E   E E E E E E   E E E E E E   E E E E
|-7-----7-----|-7-----10-----|-9---9---|-7-----7-----|-7-----5-----|-5---5----|
|---0-0---0-0-|---0-0----0-0-|---0---0-|---0-0---0-0-|---0-0---0-0-|---0---0--|
|-------------|--------------|---------|-------------|-------------|----------|
|-------------|--------------|---------|-------------|-------------|----------|


 6/8                          2/4       6/8                         2/4
  E E E E E E   E E E  E E E   E E E E   E E E E E E   E E E E E E   E E E E
|-7-----7-----|-7-----10-----|-9---9---|-7-----7-----|-7-----5-----|-5---5----|
|---0-0---0-0-|---0-0----0-0-|---0---0-|---0-0---0-0-|---0-0---0-0-|---0---0--|
|-------------|--------------|---------|-------------|-------------|----------|
|-------------|--------------|---------|-------------|-------------|----------|


 6/8                          2/4       6/8           9/8
  E E E E E E   E E E  E E E   E E E E   E E E E E E   Q.    Q   E Q.
|-7-----7-----|-7-----10-----|-9---9---|-7-----7-----|-7----11--11-5-----|
|---0-0---0-0-|---0-0----0-0-|---0---0-|---0-0---0-0-|-0-----0---0-0-----|
|-------------|--------------|---------|-------------|-------------------|
|-------------|--------------|---------|-------------|-------------------|


                       H.=H    Q=120
                               E5
                      2/4     4/4
   Q   E Q.    Q   E   Q  Q    W          +W
|-11--11-5----11--11-|-5--5--|----------|--------*|
|--0---0-0-----0---0-|-0--0--|----------|--------*|
|--------------------|-------|----------|--------*|
|--------------------|-------|-2--------|-(2)----*|


Duration Legend
---------------
W - whole; H - half; Q - quarter; E - 8th; S - 16th; T - 32nd; X - 64th; a - acciaccatura
+ - note tied to previous; . - note dotted; .. - note double dotted
Uncapitalized letters represent notes that are staccato (1/2 duration)
Irregular groupings are notated above the duration line
Duration letters will always appear directly above the note/fret number it represents the
duration for.  Duration letters with no fret number below them represent rests.  Multi-
bar rests are notated in the form Wxn, where n is the number of bars to rest for.  Low
melody durations appear below the staff

Tablature Legend
----------------
 h   - hammer-on
 p   - pull-off
 b   - bend
 pb  - pre-bend
 r   - bend release (if no number after the r, then release immediately)
 /\  - slide into or out of (from/to "nowhere")
 s   - legato slide
 S   - shift slide
  - natural harmonic
[n]  - artificial harmonic
n(n) - tapped harmonic
 ~   - vibrato
 tr  - trill
 T   - tap
 TP  - trem. picking
 PM  - palm muting
\n/  - tremolo bar dip; n = amount to dip
 \n  - tremolo bar down
 n/  - tremolo bar up
/n\  - tremolo bar inverted dip
 =   - hold bend; also acts as connecting device for hammers/pulls
 <>  - volume swell (louder/softer)
 x   - on rhythm slash represents muted slash
 o   - on rhythm slash represents single note slash

Misc Legend
-----------
 |  - bar
||  - double bar
||o - repeat start
o|| - repeat end
*|  - double bar (ending)
 :  - bar (freetime)
 $  - Segno
 &  - Coda
Tempo markers -  = BPM(8/16=s8/s16), where s8 = swing 8ths, s16 = swing 16ths
Comments